0
0

Title Track Machine Gun Kelly

Tekst piosenki i chwyty na gitarę

  • Chwyty na gitarę Średni
[Intro]
e|-Asus2-----------------------------------|-E-------------------Bsus4----------------|
B|------------------------------------|------------------------------------|
G|--1---------------1--------2---1----|------------------------------------|
D|-----2---2h4--2------2--------------|--6---6---6--7--9\--4---4---4---4---|
A|--0-0-0--0---0-0--0-0-0--0---0---0--|--7--7-7--7--7--7---2--2-2--2--2-2--|
E|------------------------------------|------------------------------------|

[Zwrotka 1]
e|-Asus2-----------------------------------|-E-------------------Bsus4----------------|
B|------------------------------------|------------------------------------|
G|--1---------------1--------2---1----|------------------------------------|
D|-----2---2h4--2------2--------------|--6---6---6---6----1---1---1---1----|
A|--0-0-0--0---0-0--0-0-0--0---0---0--|--7--7-7--7--7-7\--2--2-2--2--2-2---|
E|------------------------------------|------------------------------------|

e|-Asus2-----------------------------------|-E-------------------Bsus4----------------|
B|------------------------------------|------------------------------------|
G|--1---------------1--------2---1----|------------------------------------|
D|-----2---2h4--2------2--------------|--6---6---6--7--9\--4---4---4---4---|
A|--0-0-0--0---0-0--0-0-0--0---0---0--|--7--7-7--7--7--7---2--2-2--2--2-2--|
E|------------------------------------|------------------------------------|

[Intro]
Asus2 E Bsus4

[Zwrotka 2]
Asus2I sold some tickets to come see my downfall
It sEold out in minutes
I saw fBsus4riends in the front row
They'll Asus2leave when I'm finished
And the lAsus2ight in my name's gone
'Cause the Eones who gas you up
Only come aBsus4round when the flame's on and
fis11 (I gEave you my Asus4light, a oh, oh-oh)
N.C.
Ayy, (CENSORED) it

[Pre-Chorus]
N.C.
(Yeah, yeah, yeah)
G5I use a razor to B5take off the edge, "E5Jump off the ledge," they C5said
N.C.
(Yeah, yeah, yeah)
G5"Take the laser, B5aim at my head and E5paint the walls red," I C5said
N.C.
(Yeah, yeah, yeah)
G5"I'm crazy, B5I'm off the meds, I'm E5better off dead," they C5said
N.C.

(Yeah, yeah, yeah)
G5I use a razor to B5take off the edge, E5jump off the ledge

[Refren]
I'm sellin' C5tickets to my G5downB5faaE5all
I'm sellin' C5tickets to my G5downB5faaE5all
I'm sellin' C5tickets to my G5downB5faaE5all
I'm sellin' C5tickets to my G5downB5faaC5all

[Zwrotka 2]
C5My fingers are G5burning from the D5temperatures (Temperatures)
C5My preacher G5led me off the D5precipice (CENSORED)
C5If I'm a painter, G5I'd be a depD5ression-ist (Depression-ist)
C5I need this G5time to decompD5ress from this A5ketamine, this cocaine
This C5medicine for my growing pain
This A5weed I've been smoking, I'm dC5ying inside

[Pre-Chorus]
N.C.
(Yeah, yeah, yeah)
G5I use a razor to B5take off the edge, "E5Jump off the ledge," they C5said
N.C.
(Yeah, yeah, yeah)
G5"Take the laser, B5aim at my head and E5paint the walls red," I C5said
N.C.
(CENSORED)
G5"I'm crazy, B5I'm off the meds, I'm E5better off dead," they C5said
N.C.
(Yeah, yeah, yeah)
G5I use a razor to B5take off the edge, E5jump off the ledge

[Refren]
I'm sellin' C5tickets to my G5downB5faaE5all
I'm sellin' C5tickets to my G5downB5faaE5all
I'm sellin' C5tickets to my G5downB5faaE5all
I'm sellin' C5tickets to my G5downB5faaE5all

[Outro]
C5 B5 A5 C5

Oceń to opracowanie
Kontrybucje:
Nostradamus
Nostradamus
anonim