0
0

Początek Męskie Granie Orkiestra

 [Intro]
e|--------------|--------------|
B |--------------|--------------|
G|--------------|--------------|
D|--------------|--------------|
A|-7-----5------|-7-----5------|
E|0-3-5-6-6-3-5-|0-3-5-6-6-3-5-|

1.
Sny pochowane na strychu nie mogą już spać.
e|--------------|--------------|
B |--------------|--------------|
G|--------------|--------------|
D|--------------|--------------|
A|-7-----5------|-7-----5------|
E|0-3-5-6-6-3-5-|0-3-5-6-6-3-5-|

Idzie lato, jedno z tych miłosnych lat.
e|--------------|--------------|
B |--------------|--------------|
G|--------------|--------------|
D|--------------|--------------|
A|-7-----5------|-7-----5------|
E|0-3-5-6-6-3-5-|0-3-5-6-6-3-5-|

2.Pod stopą beól
Szkodniki żyją pod napięciem
Złe wspA7omnienia wiatr
Wyrywa z pamięci
Talia noewych kart
Dzień pachnie jak początek
Po co poA7ważna twarz
Gdy świat nakręca dobrze
ref.
Ja nie chce iCść pod wiatr
Gdy wiaeje w dobrą stronę
Nie chce bieec do gwiazd
Niech gwiGazdy biegną do mnie
Nie chce chwCytać dnia
Gdy w ręaku mam tygodnie
Takie miełe
Takie to miGłe
3.
Głośno śpiewa ulica, mimo, że słów brak.
e|--------------|--------------|
B |--------------|--------------|
G|--------------|--------------|
D|--------------|--------------|
A|-7-----5------|-7-----5------|
E|0-3-5-6-6-3-5-|0-3-5-6-6-3-5-|

Rzeka gardeł wylewa się na pusty plac.
e|--------------|--------------|
B |--------------|--------------|
G|--------------|--------------|
D|--------------|--------------|
A|-7-----5------|-7-----5------|
E|0-3-5-6-6-3-5-|0-3-5-6-6-3-5-|

4. Mam nowy chóed i dźwięk
I ludzi nowych mam
Niech straszy noA7wy duch
Już nikt nie będzie spał
Nowego słoeńca blask
Wypali nam powieki
Zobaczymy świA7at nagi nagusieńki

Ja nie chce iść pod wiatr
Gdy wieje w dobrą stronę
Nie chce biec do gwiazd
Niech gwiazdy biegną do mnie
Nie chce chwytać dnia
Gdy w ręku mam tygodnie
Takie miłe
Takie to miłe

Ja nie chce iść pod wiatr
Gdy wieje w dobrą stronę
W końcu mam swój czas
To chyba dobry moment
Nie chce biec do gwiazd
Biec do gwiazd

Ja nie chce iść pod wiatr
Gdy wieje w dobrą stronę
Nie chce biec do gwiazd
Niech gwiazdy biegną do mnie
Nie chce chwytać dnia
Gdy w ręku mam tygodnie
Takie miłe

Ja nie chce iść pod wiatr
Gdy wieje w dobrą stronę
W końcu mam swój czas
To chyba dobry moment
Nie chce biec do gwiazd
Nie chce biec do gwiazd





Oceń to opracowanie
Ocena czytelników: Niczego sobie+ 5 głosów
Kontrybucje:
madzia0711
madzia0711
Męskie Granie Orkiestra 2018 (Kortez, Podsiadło, Zalewski) – Początek UKULELE (LIVE cover)

Dodaj własne wykonanie

Umiesz zagrać tą piosenkę? Nagraj swoje wykonanie i pokaż innym jak grasz!
anonim

Aktualności Męskie Granie Orkiestra