0
0

Jasnowłosa Milano

Tekst piosenki i chwyty na gitarę

  • Chwyty na gitarę Średni Tonacja a
    27 ulubionych
E-0------0---------1-0---1----1s3-33----1-0---0-------------0------0-------1-0---0----0-222-2-----------------------
H---1------1-----------3-------------3------3------0-3-0------1------1---------3--------------3-0--------------0-3-0-
G-----2------2--------------------------------------------------2------2--------------------------------------------
D-------------------------------------------------------------------------------------------------------------------
A-------------------------------------------------------------------------------------------------------------------
E-------------------------------------------------------------------------------------------------------------------


E-0------0---------1-0---1----1s3-33----1-0---0-------------0------0-------1-0---0----0-222-2-----5s7-12------------
H---1------1-----------3-------------3------3------0-3-0------1------1---------3-----------------------------------
G-----2------2--------------------------------------------------2------2--------------------------------------------
D-------------------------------------------------------------------------------------------------------------------
A-------------------------------------------------------------------------------------------------------------------
E-------------------------------------------------------------------------------------------------------------------

eGodzina późna, ana zegarze BIcie: x x x
\/ /\ \/ /\ \/
D G x - lekkie przytlumienie strun przy uderzeniu z góry na dół
Wszyscy kładą się spać (lekkie oderwanie dłoni trzymajacej akord) zwykle bicie
e a diskopolowe w przypadku grania z orginalem.
Wtedy ja zaczynam marzyć Jesli noramlnie do ogniska mozna 3/4 bicie zwykle.
HO dziewczynie w moich esnach

2xRef.
eDziewczyno, dziewczyno,
aDziewczyno ma,
DDlaczego jesteś tGaka
eDziewczyno, dziewczyno,
aDziewczyno zła
HOdrzucasz miłość cehłopaka

eO dziewczyno - jaasnowłosa
DKtórą kochać chG
ePopatrz na mnie ai pokochaj
HNie odrzucaj menie


2xRef.
eDziewczyno, dziewczyno,
aDziewczyno ma,
DDlaczego jesteś tGaka
eDziewczyno, dziewczyno,
aDziewczyno zła
HOdrzucasz miłość cehłopaka


eW końcu ona amnie poznała
DAle to był Gpech
eW sercu dwóch achłopaków miała
HNie mogło być ich tam etrzech


3xRef.

eDziewczyno, dziewczyno,
aDziewczyno ma,
DDlaczego jesteś tGaka
eDziewczyno, dziewczyno,
aDziewczyno zła
HOdrzucasz miłość cehłopaka

Oceń to opracowanie
Ocena czytelników: Słaby 7 głosów
Historia
Kontrybucje:
Kamil
Kamil
anonim