0
0

Szerokie wody Mrozu

Tekst piosenki i chwyty na gitarę

  • Chwyty na gitarę paula
    55 ulubionych
gis Fis cis

Wisiał cień, nad jego dolą
On wył jak wilk, nad własną zgubą
Chłód i blask polarną zorzą
Oczy jej zielenią zimną
Nie zawróci jej
Nie zawróci rzeki biegu, nie
DoskoHnale wie, nie miał nic Fisprócz samej wiary wcis to
Że gdy Hspogląda w niebo, Fisktoś wysłucha jego... Disprośby.

Na szerokie giswody mnie weź,
jak Fiswoda tu wpłyń, wpłyń nacis mnie
Na szerokie wody mnie weź,
winę mą zmyj, zgaś ranę
Bo igrałem z ogniem, z ogniem igrałem
Na szerokie wody mnie weź,
wodą na młyn bądź dla mnie


Stąpał po ruchomych piaskach
Przegapił swą ostatnią szansę
Ich serca to już inne miasta
Zgubiły dom ich dusze bratnie
Nie zastąpi jej,
a ona nie zastąpi jego nikim też
Musieli przez to przejść.
A może był im, był pisany sztorm
I wysłucha niebo
Zaniesionej dawno prośby

Na szerokie wody mnie weź,
jak woda tu wpłyń, wpłyń na mnie
Na szerokie wody mnie weź,
winę mą zmyj, zgaś ranę
Bo igrałem z ogniem, z ogniem igrałem
Na szerokie wody mnie weź,
wodą na młyn bądź dla mnie

Wpłyń na mnie i ugaś, ugaś
Mą ranę ugaś, ugaś
Bo igrałem z ogniem, z ogniem igrałem
Igrałem z ogniem, z ogniem igrałem

Ugaś mnie, o Panie!
Jak woda wpłyń w mą ranę
Bo igrałem z ogniem, z ogniem igrałem
Igrałem z ogniem, z ogniem igrałem

Na szerokie wody mnie weź,
jak woda tu wpłyń, wpłyń na mnie
Na szerokie wody mnie weź,
winę mą zmyj, wpłyń na mnie
Bo igrałem z ogniem, z ogniem igrałem
Igrałem z ogniem, z ogniem igrałem


Oceń to opracowanie
Ocena czytelników: Dobry 20 głosów
Kontrybucje:
paula
paula
gosjusz
gosjusz
anonim
  • Kacper
    Tomek 1
    Poprawnie:
    fis, e, h.
    przejście
    h (trzymamy po zwrotce), A, wysokie e.

    tab (rytm sobie dopasuj):
    --------------------------------------------------------------
    --------------------------------------------------------------
    2-4-4-2-4-2-----------------------------------------------
    ----------------4-4---|-4-2-4-4-4--|-4-2-4-4-4--2-4-4
    --------------------------------------------------------------
    --------------------------------------------------------------

    A kombinowany tab z akordami wygląda tak:
    --------------------------------------------------------------
    -----------------------------------------------------------------
    2-4-4-2-4-2--------------------------------------------------
    4---4----4-------4-4-----4--------------4-2-4-4-4--2-4-4
    2---2----2-------4-------4-2-2-2-2----2-2-2-2-2---2-2-2
    -------------------2-------2-0-0-0-0--------------------------

    powodzenia
    · Zgłoś · 4 lata temu
  • Kacper
    Klaszcz
    Kiepskie te akordy... ja to jakoś tak gram:
    Zwrotka: f# E b
    Przejście: A E f#
    A E C#
    · Zgłoś · 4 lata temu
Usunięto 1 komentarz