0
0

Długość dźwięku samotności Myslovitz


Wstęp (cymbały):

||-1-1-3-5-1-3-5-5-5-3-3-5--||
||-----------------------------------||
||*---------------------------------*||
||*---------------------------------*||
||----------5------------------------||
||-1---------------5------3---------||

Wstęp (Gitara basowa):

|---------------------------------------------------------------|
|-3-3---3-3-5----------------7-7---7-7-7-5-5---5-5-5-|
|-----3----------5-5---5-5-5-----7---------------5--------|
|----------------------5---------------------------------------|

Solo:

|-5h6p5--8h10p8----------5h6p5--8h10p8-------------|
|-----------------------6h8p6-----------------------6h8p6---|
|----------------------------------------------------------------7-|
|-------------------------------------------------------------------|
|-------------------------------------------------------------------|
|-------------------------------------------------------------------|


Oceń to opracowanie
Ocena czytelników: Niczego sobie 1 głos
Kontrybucje:
Lukis87-87
Lukis87-87
anonim