0
0

HEART OF GOLD Neil Young

Tekst piosenki i chwyty na gitarę

  • Chwyty na gitarę krzysiek.b5
    3 ulubione
INTRO: (repeat twice)
e --------0---0---0---0---0---0-|-2-------2---0-----------------|
B --------0---0---0---0---0---0-|-3-------3---0-----------------|
G --------0---0---0---0---0---0-|-2-------2---0-----------------|
D --------2---2---2---2---2---2-|-0-------0---2-----------0-----|
A --------2---2---2---2---2---2-|-------------2-------0-2----2--|
E 0-0-----0---0---0---0---0---0-|-------------0-----------------|


ALONG WITH HARMONICA INTRO RIFF:
e C D G (x3)

INTRO RIFF (x1)

e I want to Clive, DI want to Ggive
e I've been a Cminer for a Dheart of Ggold
e It's these exCpressions DI never Ggive
e That keep me searching for a Gheart of gold
C (RIFF) G
And I'm getting old
e Keep me searching for a Gheart of gold
C (RIFF) G
And I'm getting old

RIFF:
-----------3------------------
-----------0------------------
-----------0------------------
-----------0------------------
--3--2--0--2------------------
-----------3------------------

ALONG WITH 2nd HARMONICA RIFF:
e C D G (x3)

INTRO RIFF (x1)

e I've been to CHollywood, DI've been to GRedwood
e I've crossed the Cocean for a Dheart of Ggold
e I've been in Cmy mind, Dit's such a Gfine line
e That keeps me searching for a Gheart of gold
C (RIFF) G
And I'm getting old
e That keeps me searching for a Gheart of gold
C (RIFF) G
And I'm getting old

ALONG WITH FINAL HARMONICA RIFF:
e C D G (x3)

e Keep me searching for a Dheart of e gold
You e keep me searching and I'm Dgetting e old
e Keep me searching for a Dheart of e gold
e I've been a miner for a Gheart of gold

C (RIFF) G


Oceń to opracowanie
Ocena czytelników: Doskonały 2 głosy
Kontrybucje:
krzysiek.b5
krzysiek.b5
anonim