0
0

Nie ma mowy Normalsi

Tekst piosenki i chwyty na gitarę

  • Chwyty na gitarę Zaawansowany
    31 ulubionych
Zagrywka:
e1|---12-12-12--10-12-5--5-5--------------------------5---5---------------|
H2|---10-10-10---8-13-6--6-6--1------------------8-8--5h6-6-5h6h5---------|
G3|---------------------------0h2-2-0h2p0---0----7-7--5---5-5-----7-5-----|
D4|---------------------------3---3-3-----3----9-9-9----------------------|
A5|-0-----------------------------------------------------------------0---|
E6|-----------------------------------------------------------------------|

Zwrotka:
e1|--0--0-----0---------------2---1--0---|
H2|--1--1--0--1-------1-------2---1--1---|
G3|--2--2--0--0-----0-0h2p0-0-0---2--2---|
D4|--2--2--0--2--0h2-------2--0---3--2---|
A5|--0--0--2--3--3------------2---3--0---|
E6|---------------------------3---1------|

Refren:
e1|--0---0----------1---1-3-|
H2|--1---0---|------3---1-3-|
G3|--2---2---|------2---2-0-|
D4|--2---3---|x3----0---3-0-|
A5|--0---2---|----------3-2-|
E6|---------------------1-3-|

Zwrotka: 1
aWiem, wiem,e7 czego Cchcesz
GLecz Fnic nie zdarzy asię, no cóż
Ty jestee7ś tam, aC ja tu
GW dwóch Fświatach wszystko
aOkey, wiem, e7kochasz Cmnie
GNic tylko Fkiedyś znowu aspotkać się
e7Na dobre i na Człe
GSpróbować Fjeszcze raz

Refren:
aZapomnieć F7+ nie ma mowy
aByć razem F7+ nie ma mowy
aWyrzucić F7+ nie da rady, dbo
F7+ W sercu G6Ciebie amamG6...a  G6   a  G6  

d F7+ G6

Zwrotka: 2
aCzuję, czue7ję, co Cjest
GKtoś całkiem Fnowy tuli Cię ado snu
Mie7ła do Cłez Gdoprowadzasz Fmnie
aJak nad e7gniazdem Cptak
G  FMoje myśli wkoło
aOdnajdę e7kiedyś C
G  FMiłość naszą

Refren:
aZapomnieć F7+ nie ma mowy
aByć razem F7+ nie ma mowy
aWyrzucić F7+ nie da rady, dbo
F7+ W sercu G6Ciebie amam...

aZapomnieć F7+ nie ma mowy
aByć razem F7+ nie ma mowy
aWyrzucić F7+ nie da rady, dbo
F7+ W sercu G6Ciebie amam...
zagrywka:

aZapomnieć F7+ nie ma mowy
aByć razem F7+ nie ma mowy
aWyrzucić F7+ nie da rady, dbo
F7+ W sercu G6Ciebie amam...

aZapomnieć F7+ nie ma mowy
aByć razem F7+ nie ma mowy
aWyrzucić F7+ nie da rady, dbo
F7+ W sercu G6Ciebie amam...


e1|--e7----- --F7+ ----- ---G6----
H2|------- ---1--- ---3---
G3|------- ---2--- ---4---
D4|------- ---3--- ---5---
A5|---2--- ---3--- ---5---
E6|------- ------- -------









Oceń to opracowanie
Ocena czytelników: Niczego sobie 9 głosów
anonim
  • audiofilka
    "tam nie jest "jak nad gniazdem ptak", tylko jak nad ogniem ćma :P " Są dwie wersje ;)
    · Zgłoś · 12 lat temu
  • Asia
    strasznie lubię tą piosenkę:)
    · Zgłoś · 13 lat temu
  • asiore3ek
    tam nie jest "jak nad gniazdem ptak", tylko jak nad ogniem ćma :P
    · Zgłoś · 13 lat temu
  • elltharion
    według mnie lepiej to brzmi jeżeli dodamy kilka akordzików( tylko trzeba wyczuć kiedy następują) ;)
    zw. akordy: a (Asus2) C G Fma7 i powrót na a
    ref: a e a e a e Dsus2 Fmaj7 G6 a
    · Zgłoś · 13 lat temu
  • Devili7
    bardzo proszę o bicie do tej piosenki!
    3161409
    · Zgłoś · 13 lat temu
  • Karoo
    brak wersu...
    sprobowac jeszcze raz
    · Zgłoś · 14 lat temu