5 Minutes Alone Pantera

Tekst piosenki

  • Tekst piosenki Punko
    1 ocena
#----------------------------------PLEASE NOTE---------------------------------#
#This file is the author's own work and represents their interpretation of the #
#song. You may only use this file for private study, scholarship, or research. #
#------------------------------------------------------------------------------##
Date: Sun, 3 Dec 1995 13:38:06 -0500
From: Don Pezet
Subject: BTAB: Five Minutes Alone by Pantera

Bass Tab by: Don Pezet (dpezet@ao.net)
Group: Pantera
Song: Five Minutes Alone
Album: Far Beyond Driven
Written and arranged by Pantera


5 MINUTES ALONE - PANTERA BASS
-------------------------------


|-------|-----------------------|-------------------------|
|-------|-----------------------|-------------------------|
|-------|-----------------------|-------------------------|
|-------|-3h5-0-x-3h5-0---x-x-x-|-3h5-0-x-6-3-0---x-x-x-x-|
S H s+s e e s+s e E s e s s+s e e s s e S s s e s

riff 1
|-----------------------|-----------------------|-------------------------|
|-----------------------|-----------------------|-------------------------|
|-----------------------|-----------------------|-------------------------|
|-3h5-0-x-3h5-0---x-x-x-|-3h5-0-x-6-3-0-x-x-x-x-|-3h5-0-x-3-5-0---x-x-x-x-|
s+s e e s+s e E s e s s+s e e s s e e s e s s+s e e s s e S s s e s

end riff 1
|-------------------------|-------------------------|-----------------------|
|-------------------------|-------------------------|-----------------------|
|-------------------------|-------------------------|-----------------------|
|-3h5-0-x-6-3-0---x-x-x-x-|-3h5-0-x-3h5-0---x-x-x-x-|-3h5-0-x-6-3-0-x-x-x-x-|
s+s e e s s e S s s e s s+s e e s+s e S s s e s s+s e e s s e e s e s

fill 1 -------------------------|
|---------------------------------||
|-----9---------------------------||
|-/9----9-8-7\5---5-----4-----2---||
|---------------7---5\3---3\1---1-||
e s s s s+s s s s+s s s+s s s

verse 1
riff 2 end riff 2
|-----------------------|-----|-----|-----|-----|-----|-----|-----|
|-----------------------|-----|-----|-----|-----|-----|-----|-----|
|-----------------------|--%--|--%--|--%--|--%--|--%--|--%--|--%--|
|---0-0-0-0-0-0---0-0-0-|-----|-----|-----|-----|-----|-----|-----|
E e e e e s s S s s s

riff 3 end riff 3
f f 2
|-------------------|-----|-----|-----------------||
|------5---------7b-|-----|-----|------5----------||
|---/8---6----------|--%--|--%--|---/8---6--------||
|-0----------4br----|-----|-----|-0----------4b---||
e e e e+s e. q e e e e+s e.+q

pre-chorus
riff 4
|-----------------------|-----|-----------|---------------------------|
|-----------------------|-----|-----------|---------------------------|
|-----------------------|--%--|-----------|---------------------------|
|---0-0-0-0-0-0---0-0-0-|-----|-/7~-2~-1~-|-3h5-0-x-x-3h5-0---x-x-x-x-|
E e e e e s s S s s s h q q s+s e s s s+s e S s s e s

|-----------|---------------------------|-----------|
|-----------|---------------------------|-----------|
|-----------|---------------------------|-----------|
|-/7~-6~-1~-|-3h5-0-x-x-3h5-0---x-x-x-x-|-/7~-6~-5~-|
h q q s+s e s s s+s e S s s e s h q q

end riff 4
|---------------------------|-----------||
|---------------------------|-----------||
|---------------------------|-----------||
|-3h5-0-x-x-3h5-0---x-x-x-x-|-/7~-2~-1~-||
s+s e s s s+s e S s s e s h q q

chorus

play riff 1 2x

play fill 1 1x

verse 2

play riff 2 1x

play riff 3 1x

pre-chorus

play riff 4 1x

chorus

play riff 1 2x

2x

||----------------------------------|----------------------------------||
||o-----9---------------------------|----9----------------------------o||
||o--/9---9-8-7\5---5---------4-----|-/9---9-8-7\5---5-----4-----2----o||
||----------------7---7-6-5\3---3\1-|--------------7---5\3---3\1---1---||
e s s s s+s s s s s s+s s s+s e s s s s+s s s s+s s s+s s s

|--------------------------------|-----|-----|
|--------------------------------|-----|-----|
|----5---------5-----4-----3-----|--%--|--%--|
|-/7---7-6-5\4---4\3---3\2---2\1-|-----|-----|
e s s s s+s s s+s s s+s s s+s

|--------------------------------||-------------------------|
|--------------------------------||-------------------------|
|----5---------5-----------------||-------------------------|
|-/7---7-6-5\4---5\4-4\3-3\2-2\1-||-3h5-0-x-3h5-0---x-x-x-x-|
e s s s s+s s s+s s+s s+s s+s s+s e e s+s e S s s e s

harm. ----------------|
|-------------4-4-4-4-4-4-4-4-4--2.6-|-------------------------|
|-------------4-4-4-4-4-4-4-4-4--2.6-|-------------------------|
|------------------------------------|-------------------------|
|-3h5-0-x-6-3------------------------|-3h5-0-x-3h5-0---x-x-x-x-|
s+s e e s s s s s s s s s s s e s+s e e s+s e S s s e s
6 } { 3

1/2 1/2
|-----------------------|-------||-------------------------------|
|-----------------------|-------||---------------------------3h5-|
|-----------------------|-------||-3br-1-3---1-----3br-1-3/5-----|
|-3h5-0-x-6-3-0-x-x-x-x-|-0-----||-------------3-----------------|
s+s e e s s e e s e s w e s s+s e s+s e s s+s s+s

1/2 1/2 1/2 1/2
|-----------------------------|-------------------------------|
|---------------------------3-|---------------------------6h8-|
|-3br-1-3---1-----3br-1-3/5---|-6br-4-6---4-----6br-4-6/8-----|
|-------------3---------------|-------------6-----------------|
e s s+s e s+s e s s+s e e s s+s e s+s e s s+s s+s

1/2 1/2 1/2
|-------------------------------|-------------------------------|
|-------------------------------|-------------------------------|
|-6br-4-6---4-x-x-x-x-x-x-x-x-x-|---------------------------5h7-|
|-------------x-x-x-x-x-x-x-x-x-|-5br-3-5---3-0---5br-3-5/7-----|
e s s+s e s s s s s s s s s e s s+s e s+s e s s+s s+s

1/2 1/2 1/2
|--------------------------------|-------------------------------|
|--------------------------------|-------------------------------|
|----------------5/7-5-----------|---------------------------5h7-|
|-5br-3-5---3-0--------7-6-5-3-0-|-5br-3-5---3-0---5br-3-5/7-----|
e s s+s e s s s s s s e s e s s+s e s+s e s s+s s+s

1/2 1/2 1/2
|-------------------------------|-------------------------------|
|-------------------------------|---------------------------3h5-|
|-------------x-x-x-x-x-x-x-x-x-|-3br-1-3---1-----3br-1-3/5-----|
|-5br-3-5---3-x-x-x-x-x-x-x-x-x-|-------------3-----------------|
e s s+s e s s s s s s s s s e s s+s e s+s e s s+s s+s

1/2 1/2 1/2 1/2
|-------------------------------|---------------------------------|
|---------------------------6h8-|----------------------------8h10-|
|-6br-4-6---4-----6br-4-6/8-----|-8br-6-8---6-----8br-6-8/10------|
|-------------6-----------------|-------------8-------------------|
e s s+s e s+s e s s+s s+s e s s+s e s+s e s s+s s+s

1/2
|------------------------||
|------------------------||
|-10br-8-10--8-----------||
|--------------10~-------||
e s s+s s e+h

4x

||--------------------|------------------------||-------------------------|
||o-------------------|-----------------------o||-------------------------|
||o-------1-----------|---------1-------------o||-------------------------|
||--1-------1-0-----2-|-2-0-------0-2-0---1-3--||-0-2-0---1-3-0-2-0---1-3-|
e E E e s s E E e s s E E e e s s+s s e e s s+s s e e s s+s s e

2/4 4/4 chorus
|-----------------||
|-----------------|| play riff 1 2x
|-x-x-x-x-x-x-x-x-||
|-x-x-x-x-x-x-x-x-||
s s s s s s s s

||--------------------------|-------------------------|
||o-------------------------|-------------------------|
||o-------------------------|-------------------------|
||--3h5-0-0-0-3h5-0-0-0-3-5-|-3h5-0-0-0-3h5-0-0-0-6-6-|
s+s e s s s+s e s s e e s+s e s s s+s e s s e e

2x

|-------------------------|-----------------------------||
|-------------------------|----------------------------o||
|-------------------------|-------------------0-1-2h3--o||
|-3h5-0-0-0-3h5-0-0-0-3-5-|-1-1-1-1-1-1-1-1-1-----------||
s+s e s s s+s e s s e e e s s e e s s s s s s s+s

4x

||------------------------------|------------------------------||
||o-----------------------------|-----------------------------o||
||o---------------------7-7-7-7-|---------------------7-7-7-7-o||
||--3h5-0-0-0-3h5-0-0-0---------|-3h5-0-0-0-6-3-0-0-0----------||
s+s e s s s+s e s s s s s s s+s e s s s s e s s s s s s

repeat & fade
||----------------------------|----------------------------||
||o---------------------------|---------------------------o||
||o---------------------------|---------------------------o||
||--3h5-0-0-0-3h5-0-0-0-6-3-0-|-0-0-3h5-0-0-0-6-3-0-3-5-6--||
s+s e s s s+s e s s s s e s s s+s e s s s s e s s e

--=====================_818026810==_
Content-Type: text/plain; charset="us-ascii"

--
dpezet@accessorl.net

--=====================_818026810==_--

Oceń to opracowanie
Ocena czytelników: Fatalny 1 głos
Kontrybucje:
Punko
Punko
anonim