This Love Pantera

Tekst piosenki

  • Tekst piosenki Punko
THIS LOVE - PANTERA

w - whole note
h - half note
q - quarter note
e - eight note
s - sixteenth note
t - thirty-second note

Rest are noted as capitalized note lengths ie:
W - whole rest
H - half rest
Q - quarter rest
E - eight rest
S - sixteenth rest
T - thirty-second rest


h - hammer on
p - pull off
b - bend (amount of bend above the measure)
r - release bend
x - muffled string
/ - slide up
\ - slide down
~ - vibrato (vib. above a measure means a more exaggerated vibrato)


Tune down one half step (Eb,Ab,Db,Gb,Bb,Eb)


102 bpm, intro
clean elec., let ring
4x 2x
||-------------------|||-------------------||-----------------|-----|
||-------------------|||-------------------||-----------------|-----|
||o-----------------o|||o-----2-----2-----o||-----------------|-----|
||o-----2-----2-----o|||o---4-----4---4---o||-----2-----2-----|--%--|
||----4-----4---4----|||--2-----3-------3--||---4-----4---4---|-----|
||--2-----3-------3--|||-------------------||-2-----3-------3-|-----|
e e e e e e e e e e e e e e e e e e e e e e e e

|-----------------|-----------------|------|---------------|------||
|-----------------|-----------------|------|---------------|------||
|-----0-----0-----|-----2-----0-----|------|-------2-------|-(2)--||
|---2-----2---2---|---2-----2---2---|---%--|-----2-2-------|-(2)--||
|-4-----3-------3-|-4-----3-------3-|------|---2---3-------|-(3)--||
|-----------------|-----------------|------|-4-----5-------|-(5)--||
e e e e e e e e e e e e e e e e e e e e + h + w

verse 1
|-----------------|-----|-----|-----|-----------------|-----|
|-----------------|-----|-----|-----|-----------------|-----|
|-----------------|-----|-----|-----|-----2-----2-----|-----|
|-----2-----2-----|--%--|--%--|--%--|---4-----4---4---|--%--|
|---4-----4---4---|-----|-----|-----|-2-----3-------3-|-----|
|-2-----3-------3-|-----|-----|-----|-----------------|-----|
e e e e e e e e e e e e e e e e

|-----------------|-----|-----------------|-----------------|-----|
|-----------------|-----|-----------------|-----------------|-----|
|-----------------|-----|-----0-----0-----|-----2-----0-----|-----|
|-----2-----2-----|--%--|---2-----2---2---|---2-----2---2---|--%--|
|---4-----4---4---|-----|-4-----3-------3-|-4-----3-------3-|-----|
|-2-----3-------3-|-----|-----------------|-----------------|-----|
e e e e e e e e e e e e e e e e e e e e e e e e

|-----------------|-----------------|-----------------|-----|
|-----------------|-----------------|-----------------|-----|
|-----------------|-----0-----0-----|-----2-----0-----|-----|
|-----2-----2-----|---2-----2---2---|---2-----2---2---|--%--|
|---2-----3---3---|-4-----3-------3-|-4-----3-------3-|-----|
|-4-----5-------5-|-----------------|-----------------|-----|
e e e e e e e e e e e e e e e e e e e e e e e e

pre-chorus w/fill 1
2/4 4/4 4x
|--------------|-------||-------------------||
|--------------|-------||-------------------||
|-------2------|-(2)---||o-----------------o||
|-----2-2------|-(2)---||o-----2-----2-----o||
|---2---3------|-(3)---||----4-----4---4----||
|-4-----5------|-(5)---||--2-----3-------3--||
e e e e + h + h


chorus
w/dist
|------------------------|---------------------|------------------------|
|------------------------|---------------------|------------------------|
|------------------------|---------------------|------------------------|
|------------------------|---------------------|------------------------|
|---4------4---4-----4-4-|---4------4-6--5---1-|---4------4---4-----4-4-|
|-0-2------2-0-2-----2-2-|-0-2------2-8--7---3-|-0-2------2-0-2-----2-2-|
s s E E. s s s E E s s s s E E. s e. s+e e s s E E. s s s E E s s

|---------------------|-----------------|------------------|
|---------------------|-----------------|------------------|
|---------------------|-----------------|------------------|
|---------------------|-----------------|------------------|
|---4------4-6--5---1-|---4-------4-----|---4-----6--5---1-|
|-0-2------2-8--7---3-|-0-2-----0-2-----|-0-2-----8--7---3-|
s s E E. s e. s+e e s s E Q s s E Q s s E Q e. s+e e

fdbk.
|-----------------|------------------||-----------------|-----|-----|-----||
|-----------------|------------------||-----------------|-----|-----|-----||
|-----------------|------------------||-----------------|-----|-----|-----||
|-----------------|------------------||-----------------|-----|-----|-----||
|---4-------4-----|---4-----6--5---1-||-4---------------|-(4)-|-(4)-|-(4)-||
|-0-2-----0-2-----|-0-2-----8--7---3-||-2---------------|-(2)-|-(2)-|-(2)-||
s s E Q s s E Q s s E Q e. s+e e || w + w + w + w ||
|| | | | ||
||clean elec. | | | ||
||-----------------|-----|-----|-----||
||-----------------|-----|-----|-----||
||-----------------|-----|-----|-----||
||-----2-----2-----|--%--|--%--|--%--||
||---4-----4---4---|-----|-----|-----||
||-2-----3-------3-|-----|-----|-----||
e e e e e e e e

verse 2
|-----------------|-----|-----|-----|-----------------|-----|
|-----------------|-----|-----|-----|-----------------|-----|
|-----------------|-----|-----|-----|-----2-----2-----|-----|
|-----2-----2-----|--%--|--%--|--%--|---4-----4---4---|--%--|
|---4-----4---4---|-----|-----|-----|-2-----3-------3-|-----|
|-2-----3-------3-|-----|-----|-----|-----------------|-----|
e e e e e e e e e e e e e e e e

|-----------------|-----|-----------------|-----------------|-----|
|-----------------|-----|-----------------|-----------------|-----|
|-----------------|-----|-----0-----0-----|-----2-----0-----|-----|
|-----2-----2-----|--%--|---2-----2---2---|---2-----2---2---|--%--|
|---4-----4---4---|-----|-4-----3-------3-|-4-----3-------3-|-----|
|-2-----3-------3-|-----|-----------------|-----------------|-----|
e e e e e e e e e e e e e e e e e e e e e e e e

|-----------------|-----------------|-----------------|-----|
|-----------------|-----------------|-----------------|-----|
|-----------------|-----0-----0-----|-----2-----0-----|-----|
|-----2-----2-----|---2-----2---2---|---2-----2---2---|--%--|
|---2-----3---3---|-4-----3-------3-|-4-----3-------3-|-----|
|-4-----5-------5-|-----------------|-----------------|-----|
e e e e e e e e e e e e e e e e e e e e e e e e

pre-chorus w/fill 2
2/4 4/4 4x
|--------------|-------||-------------------||
|--------------|-------||-------------------||
|-------2------|-(2)---||o-----------------o||
|-----2-2------|-(2)---||o-----2-----2-----o||
|---2---3------|-(3)---||----4-----4---4----||
|-4-----5------|-(5)---||--2-----3-------3--||
e e e e + h + h


chorus
w/dist
|------------------------|---------------------|------------------------|
|------------------------|---------------------|------------------------|
|------------------------|---------------------|------------------------|
|------------------------|---------------------|------------------------|
|---4------4---4-----4-4-|---4------4-6--5---1-|---4------4---4-----4-4-|
|-0-2------2-0-2-----2-2-|-0-2------2-8--7---3-|-0-2------2-0-2-----2-2-|
s s E E. s s s E E s s s s E E. s e. s+e e s s E E. s s s E E s s

|---------------------|-----------------|------------------|
|---------------------|-----------------|------------------|
|---------------------|-----------------|------------------|
|---------------------|-----------------|------------------|
|---4------4-6--5---1-|---4-------4-----|---4-----6--5---1-|
|-0-2------2-8--7---3-|-0-2-----0-2-----|-0-2-----8--7---3-|
s s E E. s e. s+e e s s E Q s s E Q s s E Q e. s+e e

|-----------------|------------------||
|-----------------|------------------||
|-----------------|------------------||
|-----------------|------------------||
|---4-------4-----|---4-----6--5---1-||
|-0-2-----0-2-----|-0-2-----8--7---3-||
s s E Q s s E Q s s E Q e. s+e e

||----------------------------------|---------------------------|
||----------------------------------|---------------------------|
||o---------------------------------|---------------------------|
||o-------------4-------------------|-------------4-------------|
||--------4-------4-----------------|-------4-------4---------5-|
||--0-2-2---2-2-----5-2-3-4-5-2-4-5-|-0-2-2---2-2-----5-2-3-4-3-|
s s s s s s s s s s s s s s s s s s s s s s s s s s s s q

2x

|---------------------------------|------------------------------||
|---------------------------------|------------------------------||
|---------------------------------|-----------------------------o||
|-------------4-------------------|-------------4---------------o||
|-------4-------4-----------------|-------4-------4-3-4-5-6-7-8--||
|-0-2-2---2-2-----5-2-3-4-5-2-4-5-|-0-2-2---2-2-----1-2-3-4-5-6--||
s s s s s s s s s s s s s s s s s s s s s s s s e e e e e e
3 } { 3

6/4 3/4 4/4
|----------|---------||
|----------|---------||
|----------|---------||
|----------|---------||
|-9--------|-(9)-\---||
|-7--------|-(7)-\---||
w. + h.

slower 64 bpm |1.,2.,3. |
||----------------------------------|----------------------------||
||----------------------------------|----------------------------||
||o---------------------------------|---------------------------o||
||o---------------------------------|---------------------------o||
||--3-5---3-5---3-5---3-5---3-6---3-|-5---3-5---3-5---3-6---3-3--||
||--1-3---1-3---1-3---1-3---1-4---1-|-3---1-3---1-3---1-4---1-1--||
s s S s s S s s S s s S s s S s s S s s S s s S s s S s q

|4. 3/4 dive w/bar
|---------------------------|---------||
|---------------------------|---------||
|---------------------------|---------||
|---------------------------|---------||
|-5---3-5---3-5---3-6---3-3-|-(3)--\--||
|-3---1-3---1-3---1-4---1-1-|-(1)--\--||
s S s s S s s S s s S s q + q + h

tempo I 102 bpm
clean elec. w/Guitar solo
|-----------------|-----|-----|-----||-----|-----|-----|-----|
|-----------------|-----|-----|-----||-----|-----|-----|-----|
|-----------------|-----|-----|-----||-----|-----|-----|-----|
|-----2-----2-----|--%--|--%--|--%--||--%--|--%--|--%--|--%--|
|---4-----4---4---|-----|-----|-----||-----|-----|-----|-----|
|-2-----3-------3-|-----|-----|-----||-----|-----|-----|-----|
e e e e e e e e

|-----------------|-----|-----------------|-----|
|-----------------|-----|-----------------|-----|
|-----2-----2-----|-----|-----------------|-----|
|---4-----4---4---|--%--|-----2-----2-----|--%--|
|-2-----3-------3-|-----|---4-----4---4---|-----|
|-----------------|-----|-2-----3-------3-|-----|
e e e e e e e e e e e e e e e e

|-----------------|-----------------|-----------------|-----------------|
|-----------------|-----------------|-----------------|-----------------|
|-----2-----2-----|-----2-----0-----|-----2-----2-----|-----2-----0-----|
|---3-----3---3---|---3-----3---3---|---3-----3---3---|---3-----3---3---|
|-5-----4-------4-|-3-----2-------2-|-5-----4-------4-|-3-----2-------2-|
|-----------------|-----------------|-----------------|-----------------|
e e e e e e e e e e e e e e e e e e e e e e e e e e e e e e e e

|-----------------|-----|-----|-----||
|-----------------|-----|-----|-----||
|-----------------|-----|-----|-----||
|-----2-----2-----|--%--|--%--|--%--||
|---4-----4---4---|-----|-----|-----||
|-2-----3-------3-|-----|-----|-----||
e e e e e e e e

chorus
w/dist
|------------------------|---------------------|------------------------|
|------------------------|---------------------|------------------------|
|------------------------|---------------------|------------------------|
|------------------------|---------------------|------------------------|
|---4------4---4-----4-4-|---4------4-6--5---1-|---4------4---4-----4-4-|
|-0-2------2-0-2-----2-2-|-0-2------2-8--7---3-|-0-2------2-0-2-----2-2-|
s s E E. s s s E E s s s s E E. s e. s+e e s s E E. s s s E E s s

|---------------------|-----------------|------------------|
|---------------------|-----------------|------------------|
|---------------------|-----------------|------------------|
|---------------------|-----------------|------------------|
|---4------4-6--5---1-|---4-------4-----|---4-----6--5---1-|
|-0-2------2-8--7---3-|-0-2-----0-2-----|-0-2-----8--7---3-|
s s E E. s e. s+e e s s E Q s s E Q s s E Q e. s+e e

|-----------------|------------------||
|-----------------|------------------||
|-----------------|------------------||
|-----------------|------------------||
|---4-------4-----|---4-----6--5---1-||
|-0-2-----0-2-----|-0-2-----8--7---3-||
s s E Q s s E Q s s E Q e. s+e e

4x

||----------------------------------|----------------------------||
||----------------------------------|----------------------------||
||o---------------------------------|---------------------------o||
||o---------------------------------|---------------------------o||
||--3-5---3-5---3-5---3-5---3-6---3-|-5---3-5---3-5---3-6---3-3--||
||--1-3---1-3---1-3---1-3---1-4---1-|-3---1-3---1-3---1-4---1-1--||
s s S s s S s s S s s S s s S s s S s s S s s S s s S s q

|-----------|-------------||
|-----------|-------------||
|-----------|-------------||
|-----------|-------------||
|-2--2----3-|-(3)--3---\--||
|-2--0----1-|-(1)--3---\--||
q. e+q. e + q. e+h

slower 52 bpm 2x
||----------------------------------|----------------------------||
||----------------------------------|----------------------------||
||o---------------------------------|---------------------------o||
||o---------------------------------|---------------------------o||
||--3-5---3-5---3-5---3-5---3-6---3-|-5---3-5---3-5---3-6---3-3--||
||--1-3---1-3---1-3---1-3---1-4---1-|-3---1-3---1-3---1-4---1-1--||
s s S s s S s s S s s S s s S s s S s s S s s S s s S s q

cross fade repeat and fade
||----------------------------------|----------------------------||
||----------------------------------|----------------------------||
||o---------------------------------|---------------------------o||
||o---------------------------------|---------------------------o||
||--3-5---3-5---3-5---3-5---3-6---3-|-5---3-5---3-5---3-6---3-3--||
||--1-3---1-3---1-3---1-3---1-4---1-|-3---1-3---1-3---1-4---1-1--||
s s S s s S s s S s s S s s S s s S s s S s s S s s S s q

full
|-----|------|------|------|
|-----|------|------|------|
|-9b~-|-(9)~-|-(9)~-|-(9)~-|
|-----|------|------|------|
|-----|------|------|------|
|-----|------|------|------|
fade in 102 bpm | w + w + w + w +
| | |
|-----------------|-----|-----|------|
|-----------------|-----|-----|------|
|-----------------|-----|-----|------|
|-----2-----2-----|--%--|--%--|--%---| repeat till end
|---4-----4---4---|-----|-----|------|
|-2-----3-------3-|-----|-----|------|
e e e e e e e e

full,hold--| 1/4 1/2
|-------------------|-----------------|-------|--------------------|
|-------------------|-----------------|-------|--------------------|
|-(9)~-11b---11-11r-|--p9----11p9-11~-|-(11)~-|-14-b-----r--b-14br-|
|-------------------|-----11----------|-------|--------------------|
|-------------------|-----------------|-------|--------------------|
|-------------------|-----------------|-------|--------------------|
+ q h + e s s + s+s e s +s e+h + w q + q + e + e s +s +

1/2 1/2 w/wah 1/2 full 1/2 full
|-----------|-------------|----------------------------|-------------------|
|-----------|-------------|----------------------14-15-|-17b-r-17b-~-----r-|
|-b-r-b-r-~-|------14---~-|-~-\-/13-13-14-15-15b-------|-------------------|
|-----------|---x---------|----------------------------|-------------------|
|-----------|-x-----------|----------------------------|-------------------|
|-----------|-------------|----------------------------|-------------------|
+ q. + e+h q + h. + q+e e e e e e e e q + e e + q.. + s
3 } { 3

full 1/2 full 1/2 full full full full full full full full
|-----------------------|--------------------|-------------|-14--14-~-|
|-17b-17b-17b-17b-17b~--|-17b---17b~---------|-14--16--17--|-17b-17b~-|
|-----------------------|--------------------|-16b-18b-19b-|----------|
|-----------------------|--------------------|-------------|----------|
|-----------------------|--------------------|-------------|----------|
|-----------------------|-----------------x\-|-------------|----------|
e. s e e e + h q + e e + q + e e q. e+q q q. e+h
3

1/4 1/4 1/4 1/4 full full full
|---17b---17-17b-17-17b-17-17b-17p14-|---------|----------17-21-20-19-17-19brp17-|
|------------------------------------|-17br-~--|-~---19b-------------------------|
|------------------------------------|---------|---------------------------------|
|------------------------------------|---------|---------------------------------|
|------------------------------------|---------|---------------------------------|
|------------------------------------|---------|---------------------------------|
S s+e+e+e+ e e e e s e + s w s S s+e. e e e s s s s s
3 } { 3

hold bend hold bend
full 1.5 1.5 full 1.5 1.5
|--------|--------21b-|----21br----21b---|-b---21-r---21b-21-|
|-19b--~-|-~----------|------------------|-------------------|
|--------|------------|------------------|-------------------|
|--------|------------|------------------|-------------------|
|--------|------------|------------------|-------------------|
|--------|---x\-0-----|------------------|-------------------|
h. + q + h q e e + q. e+e+s S q + e. s+e+s S e+q e +

N.H. vib.
hold bends depress bar -5 w/bar
1.5 1.75 1.5 and release slowly
|---r---21b-21b-21--r----r-|--------------|-------|-----|-----|-----||
|--------------------------|-3------------|-------|-----|-----|-----||
|--------------------------|--------------|-------|-----|-----|-----||
|--------------------------|--------------|-------|-----|-----|-----||
|--------------------------|--------------|-------|-----|-----|-----||
|--------------------------|--------------|-------|-----|-----|-----||
+ e+s S q e e + e. + s w + h + h + w + w + w




THIS LOVE - PANTERA GUITAR FILLS AND SOLO
------------------------------------------


fill 1
w/bar scoop slack
-1.5 0 scoop scoop scoop scoop dive P.H.
|---------------------------|-------------------|----------------------------|
|---------------------------|-------------------|----------------------------|
|--------11---------------~-|-~-------p9-----p8-|----\-6------------\------6-|
|------x--------------------|-------------------|-----------------------x----|
|----x----------------------|-------------------|----------------------------|
|---------------------------|-------------------|----------------------------|
Q. s s s + e + e + e. + s + h + e + e + q + q + q. + e + q + s + s s s +
3

-2 scoop slack
|---------------------||
|---------------------||
|-\-----/----------\--||
|---------------------||
|---------------------||
|---------------------||
+ e. + s + e + e + h

fill 2
w/wah 1/4 1/2 1/2 1/2
|--------------|----------------|-------------------------|
|--------------|----------------|-------------------------|
|-----9h11~----|----------14-16-|-16brp14b---16br---16br--|
|----x---------|----14h16-------|-------------------------|
|--------------|----------------|-------------------------|
|--------------|----------------|-------------------------|
Q. s+s+e. E H E s +s e e s+s+ s+s E e Q e E

P.H.
1/2 1/4 full
|----------------------||------------|
|----------------17b-~-||--\---------|
|---16brp14b-----------||------------|
|----------------------||------------|
|----------------------||------------|
|----------------------||------------|
E s+s+ s+s E E e + q + q Q H

Guitar solo
full hold bend---------|
-----||---------|-------------------------------|-------------|----------|
-----||---------|-------------------------------|-------------|----------|
--16-||--b---~--|-~--16b--16-16-16-16-16-16-16r-|-p14-~---\---|----------|
-x---||---------|---x---------------------------|-------------|----------|
-----||---------|-------------------------------|-------------|----------|
-----||---------|-------------------------------|-------------|--------x-|
s + q + h. + e e+e. s e e e e e e + e +e+q+q Q H Q E. s

hold bend
full full 1/2 full
|-19b-19~---19b-|-r-19b~-rp17----19------|----------------------|
|---------------|-------------19----19b--|-----r-17-19----19--~-|
|---------------|------------------------|-------------18-------|
|---------------|------------------------|----------------------|
|---------------|------------------------|----------------------|
|---------------|------------------------|----------------------|
q. e+q+e e. + e q + s+s s s e.+q + e.+s e e e e +q. +
3 } { 3

full 2 2.5 2.75 1/2
|------------------|-13~-12-10-----10----|--------------13-17-17b-r-13----|
|-~\---------------|-----------13b----13-|-b--b----b-------------------17-|
|-----14h16p14-~-\-|---------------------|--------------------------------|
|----x-------------|---------------------|--------------------------------|
|------------------|---------------------|--------------------------------|
|------------------|---------------------|--------------------------------|
+ q s+ s+ e+ q+q q. e e e e e + h s s e+s+s s s

P.H. w/talk box
full hold---| full 1/2
|---------------------|-------------------|-----------------------|
|-----17/18------15b--|----15--r---~-\----|-----------------------|
|-15~-------14~-------|----------------2b-|-r-b-------------------|
|---------------------|-------------------|-----4p2-2h4~----2-----|
|---------------------|-------------------|-------------------3/4-|
|---------------------|-------------------|-----------------------|
q e e+e. s+q + q e + e + q+e s + q s+s t+t+s+q e s+s

w/bar
full full full full slack
|---------------------|--------------------|--------||
|---------------------|--------------------|-10---\-||
|---------------------|--------------------|-9b---\-||
|-2-------------------|--------------------|--------||
|---4-3-2-3-2-----7br-|---7b-7---7b-7------|--------||
|-------------0~------|-5------5--------5\-|--------||
e s s s s s s+q q e e e e e e+e e h + h
^ ^ ^ ^ ^ ^ ^
P.H. P.H. P.H. THIS LOVE - PANTERA BASS
-------------------------

Tune to Dis (Eb,Ab,Db,Gb)

102 bpm
intro
2x

||------------|----------||---------|--------|---------|--------|---------|
||-o----------|--------o-||---------|--------|---------|--------|---------|
||-o----------|--------o-||-2--3----|-2--3---|---------|--------|-4--3--3-|
||----2--3--3-|-2--3-----||-------2-|--------|-2--3--0-|-2--3---|---------|
q. h e q. e+h q. h e q. e+h q. h e q. e+h q. h e

|-------------|-------------|--------|-----||
|---------5---|---------5---|--------|-----||
|-4-0-4-3---3-|-4-0-4-3---3-|--------|-----||
|-------------|-------------|-4--5---|-(5)-||
e e e q q e e e e q q e q. e+h + w

verse 1
|---------|----------|---------|----------|---------|-----------|---------|
|---------|----------|---------|----------|---------|-----------|---------|
|---------|------2---|---------|------2---|-2--3----|-2---2-3---|---------|
|-2--3--0-|-2--3---3-|-2--3--0-|-2--3---3-|-------2-|---2-------|-2--3--0-|
q. h e q. q q e q. h e q. q q e q. h e e e e e+h q. h e

|------------|---------|-------------|-------------|--------|---------|
|------------|---------|---------5---|---------5---|--------|---------|
|---2-4------|-4--3--3-|-4-0-4-3---3-|-4-0-4-3---3-|--------|-4--3--3-|
|-2-----3--3-|---------|-------------|-------------|-4--5---|---------|
e e e h e q. h e e e e q q e e e e q q e q. e+h q. h e

2/4
|-------------|-------------|-----------|-----||
|---------5---|---------5---|-----------|-----||
|-4-0-4-3---3-|-4-0-4-3---3-|-----------|-----||
|-------------|-------------|-4-4-4-5---|-(5)-||
e e e q q e e e e q q e e e e e+h + w

4/4 2x chorus 4x
||-----------|----------------|||-------------------|--------------------||
||-o---------|--------------o-|||-o-----------------|------------------o-||
||-o---------|-----4---2----o-|||-o-----------------|---------3--2-----o-||
||---2--3--0-|-2-5---3---3----|||---0-2-----0-2-----|-0-2-----------3----||
q. h e e e e q q e s s E Q s s E Q s s E Q e. e. e

|---------|---------|---------|------------||
|---------|---------|---------|------------||
|---------|---------|---------|-----4------||
|-2--3--3-|-2--3--3-|-2--3--3-|-2-5---3--0-||
q. h e q. h e q. h e e e e h e

verse 2
|---------|-------------|---------|-------------|---------|-----------|
|---------|-------------|---------|-------------|---------|---4-------|
|---------|-----4---2---|---------|-----4---2---|-2--3----|-2---2-3---|
|-2--3--0-|-2-5---3---3-|-2--3--0-|-2-5---3---3-|-------2-|-----------|
q. h e e e e q q e q. h e e e e q q e q. h e e e e e+h

|---------|-------------|---------|-------------|-------------|--------|
|---------|-------------|---------|---------5---|---------5---|--------|
|---------|-----4---2---|-4--3--3-|-4-0-4-3---3-|-4-0-4-3---3-|--------|
|-2--3--0-|-2-5---3---3-|---------|-------------|-------------|-4--5---|
q. h e e e e q q e q. h e e e e q q e e e e q q e q. e+h

2/4
|---------|-------------|-------------|--------|-----||
|---------|---------5---|---------5---|--------|-----||
|-4--3--3-|-4-0-4-3---3-|-4-0-4-3---3-|--------|-----||
|---------|-------------|-------------|-4--5---|-(5)-||
q. h e e e e q q e e e e q q e q. e+h + w

4/4 2x chorus 4x
||-----------|----------------|||-------------------|--------------------||
||-o---------|--------------o-|||-o-----------------|------------------o-||
||-o---------|-----4---2----o-|||-o-----------------|---------3--2-----o-||
||---2--3--0-|-2-5---3---3----|||---0-2-----0-2-----|-0-2-----------3----||
q. h e e e e q q e s s E Q s s E Q s s E Q e. e. e

||-----------------------------------|---------------------------|
||-o-------------4-------------------|-------------4-------------|
||-o-------4-------4-----------------|-------4-------4-----------|
||---0-2-2---2-2-----5-2-3-4-5-2-4-5-|-0-2-2---2-2-----5-2-3-4-3-|
s s s s s s s s s s s s s s s s s s s s s s s s s s s s q

2x 6/4
|---------------------------------|-------------------------------||----|
|-------------4-------------------|-------------4---------------o-||----|
|-------4-------4-----------------|-------4-------4-------------o-||----|
|-0-2-2---2-2-----5-2-3-4-5-2-4-5-|-0-2-2---2-2-----1-2-3-4-5-6---||-7--|
s s s s s s s s s s s s s s s s s s s s s s s s e e e e e e w. +
3 } { 3

64 bpm
3/4 4/4 |1,2,3.
|-----||-----------------------------------|------------------------------||
|-----||-o---------------------------------|----------------------------o-||
|-----||-o---------------------------------|----------------------------o-||
|-(7)-||---1-3---1-3---1-3---1-3---1-4---1-|-3---1-3---1-3---1-4---1-1----||
+ h. s s S s s S s s S s s S s s S s s S s s S s s S s s S s q

102 bpm
|4. 3/4 4/4
|---------------------------|------||---|---|---|---|-----------|----------|
|---------------------------|------||---|---|---|---|-----------|----------|
|---------------------------|------||---|---|---|---|-----------|----------|
|-3---1-3---1-3---1-4---1-1-|-(1)--||---|---|---|---|-2-2-3-0-3-|-2--3-0-3-|
s S s s S s s S s s S s q + h. W W W W q e q q e q. q q e

|----------|----------|---------|--------------------|-----------|
|----------|----------|---------|---4-------10-10----|-----------|
|----------|----------|-2-2-3---|-2---2-3/9-------9\-|-------2---|
|-2--3-0-3-|-2--3-0-3-|-------2-|--------------------|-2-2-3---3-|
q. q q e q. q q e e q h e e e e e+e e e e q e q q e

|-----------|---------|-----------|-------14----|------12-|
|-----------|---------|-----------|-12-11----11-|-10-9----|
|-------2---|-5--4--4-|-3--2--/14-|-------------|---------|
|-2-2-3---3-|---------|-----------|-------------|---------|
q e q q e q. h e q. h e q. q q e q. q q.

4/4 2x chorus 4x
||-----------|----------------|||-------------------|--------------------||
||-o---------|--------------o-|||-o-----------------|------------------o-||
||-o---------|-----4---2----o-|||-o-----------------|---------3--2-----o-||
||---2--3--0-|-2-5---3---3----|||---0-2-----0-2-----|-0-2-----------3----||
q. h e e e e q q e s s E Q s s E Q s s E Q e. e. e

4x

||-----------------------------------|------------------------------||
||-o---------------------------------|----------------------------o-||
||-o---------------------------------|----------------------------o-||
||---1-3---1-3---1-3---1-3---1-4---1-|-3---1-3---1-3---1-4---1-1----||
s s S s s S s s S s s S s s S s s S s s S s s S s s S s q

|-----------|----------||
|-----------|----------||
|-2---------|----------||
|----0----1-|-(1)--3---||
q. e+q. e + q. e+h

52 bpm 5x and fade
||-----------------------------------|------------------------------||
||-o---------------------------------|----------------------------o-||
||-o---------------------------------|----------------------------o-||
||---1-3---1-3---1-3---1-3---1-4---1-|-3---1-3---1-3---1-4---1-1----||
s s S s s S s s S s s S s s S s s S s s S s s S s s S s q




--=====================_818026784==_
Content-Type: text/plain; charset="us-ascii"

--
dpezet@accessorl.net

--=====================_818026784==_--

Oceń to opracowanie
Kontrybucje:
Punko
Punko
anonim