Call Me A Dog Pearl Jam

Tekst piosenki

  • Tekst piosenki -=art=-
This just has the chordal background; the strumming patterns
are not included
Lyrics and chords are lined up as best as possible
Mike's chorus leads are under the corresponding lyrics
Stone's solo rhythm is under the corresponding solo line
(07/27/99)

-|-0---------------3-----------------2---------------|------------------------
-|-1---------------0-----------------3----1----------|------------------------
-|-2---------------0-----------------2----0----------|------------------------
-|-2---------------0-----------------0----2----------|------------------------
-|-0---------------2----------------------3----------|------------------------
-|-----------------3---------------------------------|------------------------
You call me a dog, well that's fair enough

-|-0--------------------3----------2-----------------------------|------------
-|-1--------------------0----------3-----------1----------0-0-0--|------------
-|-2--------------------0----------2-----------0----------0-0-0--|------------
-|-2--------------------0----------0-----------2----------0-0-0--|------------
-|-0--------------------2----------------------3-------2---------|------------
-|----------------------3----------------------------------------|------------
Cause it ain't no use to pretend you're wrong

-|-0----------------2------------0-------1-----------|------------------------
-|-1----------------3------------0-------1-----------|------------------------
-|-2----------------2------------0-------2-----------|------------------------
-|-2----------------0------------2-------3-----------|------------------------
-|-0-----------------------------2-------3-----------|------------------------
-|-------------------------------0-------1-----------|------------------------
You called me out I can't hide anymore

-|-0---------------3----------------0-------------0----|----------------------
-|-1---------------0----------------0-------------0----|----------------------
-|-2---------------0----------------0-------------0----|----------------------
-|-2---------------0----------------2-------------2----|----------------------
-|-0---------------2----------------2-------------2----|----------------------
-|-----------------3----------------0-------------0----|----------------------
I have no disguise you can't see through

-|-0------------------------3-------------2-----------------|-----------------
-|-1------------------------0-------------3----------1------|-----------------
-|-2------------------------0-------------2----------0------|-----------------
-|-2------------------------0-------------0----------2------|-----------------
-|-0------------------------2------------------------3------|-----------------
-|--------------------------3-------------------------------|-----------------
Well you say it's bad luck to have fallen for me

-|-0-------------3--------------2------------------------|--------------------
-|-1-------------0--------------3--------1--------0-0-0--|--------------------
-|-2-------------0--------------2--------0--------0-0-0--|--------------------
-|-2-------------0--------------0--------2--------0-0-0--|--------------------
-|-0-------------2-----------------------3-----2---------|--------------------
-|---------------3---------------------------------------|--------------------
What can I do to make it good for you

-|-0--------------2------------0----------1--------|--------------------------
-|-1--------------3------------0----------1--------|--------------------------
-|-2--------------2------------0----------2--------|--------------------------
-|-2--------------0------------2----------3--------|--------------------------
-|-0---------------------------2----------3--------|--------------------------
-|-----------------------------0----------1--------|--------------------------
You wore me out like an old winter coat

-|-0---------------3--------------0------|------------------------------------
-|-1---------------0--------------0------|------------------------------------
-|-2---------------0--------------0------|------------------------------------
-|-2---------------0--------------2------|------------------------------------
-|-0---------------2--------------2------|------------------------------------
-|-----------------3--------------0------|------------------------------------
Tryin' to be safe from the cold

-|---------------------------------------------3------3-----3-----------|-----
-|----------------1--1----1-----1--------------3------3---3-3-----------|-----
-|----------------0--0----0-----0--------------0------0---0-0-----------|-----
-|----------------2--2----2-----2--------------0------0---2-0-----------|-----
-|----------------3--3----3-----3--------------2------2---3-2-----------|-----
-|---------------------------------------------3------3-----3-----------|-----
Chorus But it's my time to throw the next stone

-|---------------2-------------------------3-----------|----------------------
-|---------------3----------1--------------0----0---0--|----------------------
-|---------------2----------0---------0----0----0h2-0--|----------------------
-|-----------0---0----------2--------------0-----------|----------------------
-|-0----3-------------------3----0-3-------2-----------|----------------------
-|-----------------------------------------3-----------|----------------------
I'll call you beautiful if I call at all

-|--0--------------------------|----------------------------------------------
-|--0--------------------------|----------------------------------------------
-|--1--------------------------|----------------------------------------------
-|--0--------------------------|----------------------------------------------
-|--2--------------------------|----------------------------------------------
-|--0--------------------------|----------------------------------------------
You call me a dog

-|-0-----------------------3-------------2---------------------|--------------
-|-1-----------------------0-------------3------------1--------|--------------
-|-2-----------------------0-------------2------------0--------|--------------
-|-2-----------------------0-------------0------------2--------|--------------
-|-0-----------------------2--------------------------3--------|--------------
-|-------------------------3-----------------------------------|--------------
And you tell me I'm low 'cause I slept on the floor

-|-0------------------3---------------2-----------------------------------|---
-|-1------------------0---------------3---------------1-----------0-0-0---|---
-|-2------------------0---------------2---------------0-----------0-0-0---|---
-|-2------------------0---------------0---------------2-------------------|---
-|-0------------------2-------------------------------3--------2----------|---
-|--------------------3---------------------------------------------------|---
And out in the woods with the badgers and the wolves

-|-0----------------2------------------0-----------1--------|-----------------
-|-1----------------3------------------0-----------1--------|-----------------
-|-2----------------2------------------0-----------2--------|-----------------
-|-2----------------0------------------2-----------3--------|-----------------
-|-0-----------------------------------2-----------3--------|-----------------
-|-------------------------------------0-----------1--------|-----------------
You threw me out 'cause I went digging for gold

-|-0--------------------------3--------0--------|-----------------------------
-|-1--------------------------0--------0--------|-----------------------------
-|-2--------------------------0--------0--------|-----------------------------
-|-2--------------------------0--------2--------|-----------------------------
-|-0--------------------------2--------2--------|-----------------------------
-|----------------------------3--------0--------|-----------------------------
And I came home with a hand of coal

-|-----------------------------------------3------3-----3-------|-------------
-|-------------1--1----1----1--------------3------3---3-3-------|-------------
-|-------------0--0----0----0--------------0------0---0-0-------|-------------
-|-------------2--2----2----2--------------0------0---2-0-------|-------------
-|-------------3--3----3----3--------------2------2---3-2-------|-------------
-|-----------------------------------------3------3-----3-------|-------------
Oh but it's my time to throw the next stone w/Fill 1

-|-15----------------12------17/19-|------------------------------------------
-|-15b17-12-15-12-15------15-------|------------------------------------------
-|---------------------------------|------------------------------------------
-|---------------------------------|------------------------------------------
-|---------------------------------|------------------------------------------
-|---------------------------------|------------------------------------------
Fill 1(Mike)

-|---------------2----------------------------------------------3-----------|-
-|---------------3------------------------1---------------------0---0----0--|-
-|---------------2------------------------0----------------0----0---0h2--0--|-
-|-----------0---0------------------------2---------------------0-----------|-
-|-0----3---------------------------------3-----------0-3-------2-----------|-
-|--------------------------------------------------------------3-----------|-
I'll call you beautiful if I call at all

-|------------------------12------------------------------------------------|-
-|------------------------12-----12-----------------------------------------|-
-|----------------------------14----14-12-12h14p12--------------------------|-
-|--------------------------------------------------------------------------|-
-|--------------------------------------------------------------------------|-
-|--------------------------------------------------------------------------|-
Mike

-|------------------------------------------------3-----3-----3----|----------
-|---------------1---1---1--------------1---------3-----3---3-3----|----------
-|---------------0---0---0--------------0---------0-----0---0-0----|----------
-|---------------2---2---2--------------2---------0-----0---2-0----|----------
-|---------------3---3---3--------------3---------2-----2---3-2----|----------
-|------------------------------------------------3-----3-----3----|----------
And when it's my time to call your bluff(w/Fill 2)

-|-----------------------------------|--------------------------------------|-
-|-----------------------------------|-12-----------------------------------|-
-|-----------------------12----12-12-|-12----12----------------------12-----|-
-|-----------------------14h15-14-14-|----14----14-12----12----------12-14\-|-
-|-----------------------------------|----------------14----14-15-14--------|-
-|-----------------------------------|--------------------------------------|-
Mike Fill 2

-|---------------2----------------------------------------------3-----------|-
-|---------------3-------------------------1--------------------0-----------|-
-|---------------2-------------------------0--------------------0-----------|-
-|-----------0---0-------------------------2------------------0-0-----------|-
-|-0----3----------------------------------3---------0-----3----2-----------|-
-|--------------------------------------------------------------3-----------|-
I'll call you beautiful or leave it alone yeah..

-|--------------------------------------------------------------------------|-
-|------------------------12------------------------------------------------|-
-|------------------------12h14--12----12-15p14p12--------------------------|-
-|----------------------------------14--------------------------------------|-
-|--------------------------------------------------------------------------|-
-|--------------------------------------------------------------------------|-
Mike

-|--0----------------------|--------------------------------------------------
-|--0----------------------|--------------------------------------------------
-|--1----------------------|--------------------------------------------------
-|--0----------------------|--------------------------------------------------
-|--2----------------------|--------------------------------------------------
-|--0----------------------|--------------------------------------------------
You call me a dog

-|-2--2-2------------------2---2-2---|----------------------------------------
-|-3--3-3------------------3---3-3---|----------------------------------------
-|-2--2-2------------------2---2-2---|----------------------------------------
-|-0--0-0------------------0---0-0---|----------------------------------------
-|-----------------------------------|----------------------------------------
-|-----------------------------------|----------------------------------------
And that's fair enough

-|---------------------------------|------------------------------------------
-|---------------------------------|------------------------------------------
-|--------------0-------3------0---|------------------------------------------
-|-----2----0---------3------2-----|------------------------------------------
-|---2--------------1------3-------|------------------------------------------
-|-0------3------------------------|------------------------------------------
It doesn't bother me as

-|-2--3-2------------2--3-2----|----------------------------------------------
-|-3--3-3------------3--3-3----|----------------------------------------------
-|-2--2-2------------2--2-2----|----------------------------------------------
-|-0--0-0------------0--0-0----|----------------------------------------------
-|-----------------------------|----------------------------------------------
-|-----------------------------|----------------------------------------------
Long as you know

-|--------------------------------------|-------------------------------------
-|--------------------------------------|-------------------------------------
-|--------------------0--------3------0-|-------------------------------------
-|-----2---------0-----------3------2---|-------------------------------------
-|---2---------------------1------3-----|-------------------------------------
-|-0---------3--------------------------|-------------------------------------
But bad luck will follow you

-|--2------------------------------------------|------------------------------
-|--3------------------------------------------|------------------------------
-|--2------------------------------------------|------------------------------
-|--0------------------------------------------|------------------------------
-|---------------------------------------------|------------------------------
-|---------------------------------------------|------------------------------
If you keep me on a leash and drag me a--

-|---------------------------------------------------------------------|------
-|--8b10vvvvvvvv-------------------------------------------------------|------
-|----------------7b9-7b9-7b9---7b9-7b9---7b9-7b9-7b9r7p5--------------|------
-|--------------------------------------------------------7-/--\-------|------
-|---------------------------------------------------------------------|------
-|----------------------------------------------------------------/15\-|------
long________________________________

-|-0--------------3-------------2-----------------0--------------------|------
-|-1--------------0-------------3-----------------1--------------------|------
-|-2--------------0-------------2-----------------0--------------------|------
-|-2--------------0-------------0-----------------2--------------------|------
-|-0--------------2-------------------------------3--------------------|------
-|----------------3----------------------------------------------------|------
Stone

-|----------------------------------------------------5-------------------|---
-|------------------------------------------------------8-5h8p5-----------|---
-|----------------------------------5---7-5-7-5-7b9-------------7b9r7-5---|---
-|------------------------------5-7-------------------------------------7-|---
-|-----3--3-3-5b6r5-3---3-3-5h7-------------------------------------------|---
-|-3h5----------------5---------------------------------------------------|---
Mike

-|-0------------------------3-------------------2-------------------------|---
-|-1------------------------0-------------------3-------------------------|---
-|-2------------------------0-------------------2-------------------------|---
-|-2------------------------0-------------------0-------------------------|---
-|-0------------------------2---------------------------------------------|---
-|--------------------------3---------------------------------------------|---
Stone

-|----------------|--------10---10------------|-----8----8----8-------------|-
-|----------------|----8------8----8---10p8---|-/10---10---10---10---10p8---|-
-|-5h7-5vvvv-/--\-|-/9---9-----------9------9-|--------------------9------9-|-
-|----------------|---------------------------|-----------------------------|-
-|----------------|---------------------------|-----------------------------|-
-|----------------|---------------------------|-----------------------------|-
Mike

-|-0--------------|-0-------------------------|-2---------------------------|-
-|-1--------------|-1-------------------------|-3---------------------------|-
-|-0--------------|-2-------------------------|-2---------------------------|-
-|-2--------------|-2-------------------------|-0---------------------------|-
-|-3--------------|-0-------------------------|-----------------------------|-
-|----------------|---------------------------|-----------------------------|-
Stone

-|-10p8--------10p8----------------------8-10-10-10-10h11p10p8-10h11p10p8-|---
-|------10p8--------10p8---/10--10\--/10----------------------------------|---
-|-----------9-----------9------------------------------------------------|---
-|------------------------------------------------------------------------|---
-|------------------------------------------------------------------------|---
-|------------------------------------------------------------------------|---
Mike

-|-0------------------------1---------0-----------------------------------|---
-|-0------------------------1---------1-----------------------------------|---
-|-0------------------------2---------2-----------------------------------|---
-|-2------------------------3---------2-----------------------------------|---
-|-2------------------------3---------0-----------------------------------|---
-|-0------------------------1---------------------------------------------|---
Stone

-|-10h11p10p8-10h11p10p8-10h11p10p8-10h11p10p8-10h11p10p8-10h11p10p8------|---
-|------------------------------------------------------------------------|---
-|------------------------------------------------------------------------|---
-|------------------------------------------------------------------------|---
-|------------------------------------------------------------------------|---
-|------------------------------------------------------------------------|---
Mike

-|------------3-----------------------------------------------------------|---
-|------------0-----------------------------------------------------------|---
-|------------0-----------------------------------------------------------|---
-|------------0-----------------------------------------------------------|---
-|------------2-----------------------------------------------------------|---
-|------------3-----------------------------------------------------------|---
Stone

-|-10p8--------------------------|--------------------------------------------
-|------10vvvv---8--8---8vvvv----|--------------------------------------------
-|--------------------9----------|--------------------------------------------
-|-------------------------------|--------------------------------------------
-|-------------------------------|--------------------------------------------
-|-------------------------------|--------------------------------------------
Mike

-|------0----0----------0------0-|--------------------------------------------
-|------0----0----------0------0-|--------------------------------------------
-|------0----0----------0------0-|--------------------------------------------
-|------2----2----------2------2-|--------------------------------------------
-|------2----2----------2------2-|--------------------------------------------
-|------0----0----------0------0-|--------------------------------------------
Stone

-|--------------0--0---0-----------------0--------------3------3-----3---|----
-|--------------1--1---1-----------------1--------------3------3---3-3---|----
-|--------------0--0---0-----------------0--------------0------0---0-0---|----
-|--------------2--2---2-----------------2--------------0------0---2-0---|----
-|--------------3--3---3-----------------3--------------2------2---3-2---|----
-|------------------------------------------------------3------3-----3---|----
Yeah but it's my time to throw the next stone w/Fill 3

-|------------------------------------|--------------------------------|------
-|------------------------------------|-14--------14-------------------|------
-|------------------------------------|---*b15r14---*b15r14--12h14r12--|------
-|---------------------14h15p14h15p14-|--------------------------------|------
-|------------------------------------|--------------------------------|------
-|------------------------------------|--------------------------------|------
Mike Fill 3 (*pre-bends)

-|---------------2----------0--------------3---------------------|------------
-|---------------3----------1--------------0---------------------|------------
-|---------------2----------0-----------0--0---------------------|------------
-|-----------0---0----------2--------------0---------------------|------------
-|-0----3-------------------3----0-3-------2---------------------|------------
-|-----------------------------------------3---------------------|------------
I'll call you beautiful if I call at all(W/Fill 4) Yeah

-|-------15-------15-------15-------15-------15-|-----------------------------
-|-15h17----15h17----15h17----15h17----15h17----|-----------------------------
-|----------------------------------------------|-----------------------------
-|----------------------------------------------|-----------------------------
-|----------------------------------------------|-----------------------------
-|----------------------------------------------|-----------------------------
Fill 4 (Mike)

-|--------------0----0---0----0---------3----3-----3-----|--------------------
-|--------------1----1---1----1---------3----3---3-3-----|--------------------
-|--------------0----0---0----0---------0----0---0-0-----|--------------------
-|--------------2----2---2----2---------0----0---2-0-----|--------------------
-|--------------3----3---3----3---------2----2---3-2-----|--------------------
-|--------------------------------------3----3-----3-----|--------------------
And when it's my line to call your bluff(W/Fill 5)

-|----12------------------------------|---------------------------------------
-|-12---------------------------------|---------------------------------------
-|------*b15r14-----12-14-14b15r14p12-|---------------------------------------
-|---------------14-------------------|---------------------------------------
-|------------------------------------|---------------------------------------
-|------------------------------------|---------------------------------------
Fill 5(*pre-bend)

-|---------------2-------------------0---------------------------3----------|-
-|---------------3-------------------1---------------------------0----------|-
-|---------------2-------------------0-----------------------0---0----------|-
-|-----------0---0-------------------2---------------------------0----------|-
-|-0----3----------------------------3-----------------0--3------2----------|-
-|---------------------------------------------------------------3----------|-
I'll call you beautiful or leave it alone yeah

-|-----------------------17b19-17-15-17b18r17p15-17-------------------------|-
-|--------------------------------------------------------------------------|-
-|--------------------------------------------------------------------------|-
-|--------------------------------------------------------------------------|-
-|--------------------------------------------------------------------------|-
-|--------------------------------------------------------------------------|-
Mike

-|-0-------------------|------------------------------------------------------
-|-0-------------------|------------------------------------------------------
-|-1-------------------|------------------------------------------------------
-|-0-------------------|------------------------------------------------------
-|-2-------------------|------------------------------------------------------
-|-0-------------------|------------------------------------------------------
You call me a dog

Oceń to opracowanie
Kontrybucje:
-=art=-
-=art=-
anonim