0
0

In The Air Tonight Phil Collins

Tekst piosenki i chwyty na gitarę

  • Chwyty na gitarę MonaLisa
    3 ulubione
din I canC fB eelC it coming in the air tonight, Oh Lord
din I\C9;B ve Cbeen waiting for this moment, all my life, Oh Lord
din Can yCouB feCel it coming in the air tonight, Oh Lord, Oh Lord
din |-----------|
|-----------|
|-----------|
|-0---------|
|-----------|
|-0---------|
din Well, if you told me you were drowning
CI would not lend a hand
B I\'ve seen your face before my friend
CBut I don\'t know if you know who I am
|-----------|
|-----------|
|-----------|
|-----------|
|-3---------|
|-----------|
(start from a low volume and raise it up)
din Well, I was there and I saw what you did
CI saw it with my own two eyes
|---------------|
|---------------|
|---------------|
|-12b14-----r12-|
|---------------|
|---------------|
B So you can wipe off the grin, I know where you\'ve been
CIt\'s all been a pack of lies
|------------|
|-15b16r14---|
|-14b15r14---|
|------------|
|------------|
|------------|
din And IC cB an feel it coming in the air tonight,
|-15b16r15---|
|-15b16r15---|
|------------|
|------------|
|------------|
|------------|
COh Lord
|-/13---------|
|-/13--13--15-|
|------12--14-|
|-------------|
|-------------|
|-------------|

din I\C9;B ve Cbeen waiting for this moment for all my life, Oh Lord
din I canC fB eel it in the air tonight,
|---------------|
|---------------|
|-12b13-----r12-|
|---------------|
|---------------|
|---------------|
COh Lord
din And IC\&B #39;ve been waiting for this moment all my life,
|---------------|
|---------------|
|-12b13-----r12-|
|---------------|
|---------------|
|---------------|
COh Lord, Oh Lord
din |-----------|
|-----------|
|-----------|
|-0---------|
|-----------|
|-0---------|

din Well CI remember, I remember don\'t worry
B Howdin could I ever forget, it\'s the first time, the last time we ever met
CBut I know the reason why you keep your silence up, no you don\'t fool me
B The hurt doesn\'t show; but the pain still grows
din It\'s no stranger to you or me

(drums and bass come in)
din I can[*] fCeeB l iCt coming in the air tonight, Oh Lord
|------------------|
|------------------|
|------------------|
|-----10--------10-|
|-12--------12-----|
|------------------|(guitar plays this after each line)
din I\[*]9;CveB beCen waiting for this moment, all my life, Oh Lord
din I can[*] fCeeB l iCt in the air tonight, Oh Lord, Oh Lord
din I\[*]9;CveB beCen waiting for this moment, all my life, Oh Lord
din I can[*] fCeeB l iCt coming in the air tonight, Oh Lord
din I\[*]9;CveB beCen waiting for this moment, all my life, Oh Lord
din I can[*] fCeeB l iCt in the air tonight, Oh Lord, Oh Lord
din I\[*]9;CveB beCen waiting for this moment, all my life, Oh Lord

* guitar plays this
|-----|
|-3---|
|-2---|
|-0---|
|-----|
|-0---|


Oceń to opracowanie
Ocena czytelników: Słaby 2 głosy
Kontrybucje:
MonaLisa
MonaLisa
anonim