0
0

Teraz płacz Piasek

Tekst piosenki i chwyty na gitarę

  • Chwyty na gitarę Początkujący Tonacja G
    9 ulubionych
Intro
a e G D

e.|-7h8-7---a-------|-7h8-7--e-------|-7h8-7-----G--------|-7h8-7----D------|
H.|-------10-8-10--|-------10-8----|-------10-8-10h12--|-------10-8-10--|
G.|----------------|------------9--|-------------------|----------------|
D.|----------------|---------------|-------------------|----------------|
A.|----------------|---------------|-------------------|----------------|
E.|----------------|---------------|-------------------|----------------|

Zwrotka 1
aMówią: człowiek Fwszystko może, Cniechby tylko echciał
aSpróbuj może Fchcieć odwrócić Cczas e 
aGdybym to, co Fkocham w tobie Czmienić w kroplę emiał
aByła by to Fnajpiękniejsza ełza
A więc Fpłacz póki eczas
Może Fcoś   zmieni Głza

Refren
Teraz Cpłacz, teraz Gpłacz póki dczas
C Stało Gsię co miało dstać
Teraz Cpłacz póki Gczas
może dcoś zmieni Hjeszcze ta Ełza

Zwrotka 2
aMówią: człowiek Fwszystko może, Cniechby było etak
aŻeby łatwo Fmożna zmienić w Cnase 
aWszystko to, co Fzawsze było Csiłą przeciw name 
aW kroplę co odFpowiedź łatwą eda
A więc Fpłacz póki eczas
Może Fcoś   zmieni Głza

Refren
Teraz Cpłacz, teraz Gpłacz póki dczas
C Stało Gsię co miało dstać
Teraz Cpłacz póki Gczas
może dcoś zmieni Hjeszcze ta Ełza

Teraz Cpłacz, teraz Gpłacz póki dczas
C Stało Gsię co miało dstać
Teraz Cpłacz póki Gczas
może dcoś zmieni Hjeszcze ta Ełza


e.|-7h8-7--a--------|-7h8-7-e--------|-7h8-7----G---------|-7h8-7--D--------|
H.|-------10-8-10--|-------10-8----|-------10-8-10h12--|-------10-8-10--|
G.|----------------|------------9--|-------------------|----------------|
D.|----------------|---------------|-------------------|----------------|
A.|----------------|---------------|-------------------|----------------|
E.|----------------|---------------|-------------------|----------------|

e.|-7h8-7--a--------|-7h8-7-e--------|-7h8-7----G---------|-7h8-7--D--------|
H.|-------10-8-10--|-------10-8----|-------10-8-10h12--|-------10-8-10--|
G.|----------------|------------9--|-------------------|----------------|
D.|----------------|---------------|-------------------|----------------|
A.|----------------|---------------|-------------------|----------------|
E.|----------------|---------------|-------------------|----------------|

Oceń to opracowanie
Ocena czytelników: Doskonały 1 głos
anonim
  • Krzysiek 108
    wstęp
    a e G d

    zwrotka
    a F C
    G 3x
    a F e

    bridge
    F e F G

    refren
    C G d C G d
    C G d B E
    · Zgłoś · 13 lat temu
  • segal71
    i znowu dałem ciała chodzi mi o to by zagrać zamiast a F C G a FC e
    człowiek całe życie się uczy .............. ☺☺
    · Zgłoś · 14 lat temu
  • segal71
    przepraszam chodziło mi o zwrotkę ☺☺
    a jeszcze jedno spróbujcie zagrać w zwrotce zamiast a F C e
    a refren C G d_F 2x
    C G d
    F E to naprawdę ładnie brzmi to F po d łagodnie schodzi i lepiej się śpiewa POZDRAWIAM
    · Zgłoś · 14 lat temu
  • segal71
    ja jednak myślę, że z F E lepiej brzmi a co do ostatnich wersów wzrotki to się zgadzam jest F e F G
    POZDRAWIAM
    · Zgłoś · 14 lat temu
  • krystian
    również ostatnie dwa wersy zwrotki to: F e F G, a nie: a e F G
    · Zgłoś · 14 lat temu
  • krystian
    W refrenie ,otatni wers ma być B E, a nie F E
    · Zgłoś · 14 lat temu