0
0

Czarna Madonna Piosenki Religijne

(Riff 1)
1------------------------------------------
2------------------------------------------
3------------------------------------------
4-------5----6---5-------------------------
5---3-3---3----3---3----6/8----5/6---------
6--------------------44-----33-------------
Riff2:
1--------------------------|
2--------------------------|
3--5555555-----------------|
4--5555555---6-6--5--------|
5--3333333---6-6--5--------|
6------------4-4--3--------|
Riff 3:
1-------------------------------------------------------
2-------------------------------------------------------
3--------------------555555555--------------------------
4--6666666666666--5--555555555----666666666---5---------
5--6666666666666--5--333333333----666666666---5---------
6--4444444444444--3---------------444444444---3---------

1-------------------------------------------------------
2-------------------------------------------------------
3-------------------------------------------------------
4---66666666-----555555555------------------------------
5---66666666-----555555555------------------------------
6---44444444-----333333333-----------------------------

Jest zakątek na tej ziemi,
Gdzie powracać każdy chce,
Gdzie króluje Jej Oblicze,
Na Nim cięte rysy dwie.
Wzrok ma smutny, zatroskany,
Jakby chciała prosić cię,
Byś w matczyną Jej opiekę oddał się.

Ref.
Madonno, Czarna Madonno,
Jak dobrze Twym dzieckiem być!
O, pozwól, Czarna Madonno,
W ramiona Twoje się skryć!

W Jej ramionach znajdziesz spokój
I uchronisz się od zła,
Bo dla wszystkich swoich dzieci
Ona serce czułe ma.
I opieką cię otoczy,
Gdy Jej serce oddasz swe,
Gdy powtórzysz Jej z radością słowa te:

Dziś, gdy wokół nas niepokój,
Gdzie się człowiek schronić ma,
Gdzie ma pójść, jak nie do Matki,
Która ukojenie da?
Więc błagamy, o Madonno,
Skieruj wzrok na dzieci swe
I wysłuchaj, jak śpiewamy prosząc Cię:


Oceń to opracowanie
Ocena czytelników: Słaby 1 głos
Kontrybucje:
Nostradamus
Nostradamus
anonim