0
0

Mała Piotr Rogucki

TAB:
E|----------------------------------------------12-------------|
H|-13--------------12--------------13-------------------------------|
G|--------12--------------12------------12--------------12-------|
D|----14------14-----14-------14----14------14-----14--------14-|
A|-------------------------------------------------------------------|
E|-------------------------------------------------------------------|

E|-----------------------------------------------------------------|
H|-12-------------10----------12-------------17-----15-----|
G|--------12------------12-----------12-----------------------|
D|----14------14-----14-----14-----14------14-----14-----14-|
A|--------------------------------------------------------------------|
E|--------------------------------------------------------------------|

E|---------------------------------------------------------------|
H|-13-----------12----------13-------------17----15-----|
G|--------14----------14-----------14--------------------|
D|----15-----15----15-----15-----15-----15----15----15-|
A|---------------------------------------------------------------|
E|---------------------------------------------------------------|

E|------------------------------------------------------------------|
H|-17------------12-----------12------------13-------------|
G|--------14-----------14-----------13------------12-----|
D|----15-----15-----15-----15-----14------14-----14----14-|
A|------------------------------------------------------------------|
E|------------------------------------------------------------------|


I.
CJesteś różowy krem na cie eście
I byłbym ciebie jaF

O wiele częściej
O ile zecEhcesz...


II.
CJesteś jedyna w całym mie eście
Łaskawy zrządził lFos

Że chciałaś mieć mnie
W domu na jesEień


III.
CJesteś o wiele lepszym wie erszem
Niż każdy który jFa

Rzetelnie sklecę
Chcąc Cię uchEwycić w tekście


[IV.]
CPewne, nie zawsze będzie pie ęknie
Ucieknę w którąś nFoc

Lecz do póki jestem
Nie broń miE mała


Ref.
Wierzyć, żCe
Cały śwe iat
Nie jest wFart

Nie jest...
Nie broń miE mała
Wierzyć, żCe
Cały śwe iat
Nie jest wFart

Ciebie!
Nie broń miE mała
Wierzyć, żCe
Cały śwe iat
Nie jest wFart

Ciebie!
Nie broń miE mała

Wierzyć...



Oceń to opracowanie
Ocena czytelników: Niczego sobie 41 głosów
anonim
  • anonim
    Bartosz Ciesielski 1
    A ja bym zamiast F7 zastosował d mol ładniej brzmi.Dziż wieczorem nagram taka wersje z d mol i wrzuce na swój kanał na yt...
    https://www.youtube.com/user/bartekzzr60...
    · Zgłoś · 6 lat temu
  • powrooz666
    Jest prawie dobrze
    Wg mnie powinno być tak:
    C e F h* i E
    0
    3
    2
    3
    2
    x ______________ h* E
    h* gramy w miejscu: O ile zechcesz
    · Zgłoś · 6 lat temu
  • anonim
    nenkam
    4 akord to chyba E-dur nie e-moll :P
    · Zgłoś · 7 lat temu
  • anonim
    Poprawka
    4 akord to chyba e-moll nie e-dur
    · Zgłoś · 7 lat temu