Popraw Opracowanie
Transponuj
0

Mark My Words (bass) P.O.D.

Tekst piosenki

  • Tekst piosenki damballa
This song can only be played on a five string tuned down a whole step.
it goes really low.

> hold note
/ slide up to next note
\ slide down to next note
~ vibrato

intro
F|--------------------------|
C|--------------------------|
G|--------0-2---------------|  x4 (only slide down the last time through
D|----0-2--------------5-5\-|      slide down to the first note of the verse)
A|0-3---------0~--0-3-5-0---|

verse (repeat as needed)
F|------------------|
C|------------------|
G|------------------|
D|------------------|
A|0>-------3>-------|

chorus
F|---------------------------------|
C|---------------------------------|
G|---------------------------------|
D|---------------------------------|
A|0-0-00--0-0-00--3-3-33--3-3-33/5~|

repeat verse
repeat chorus

bridge
F|------------------------|--------|
C|------------------------|--------|
G|----------2-----------2-|--------|
D|------5-0---------5-0---|--------|
A|2-0-3-------2-0-3-------|-0>-----|

repeat chorus x8
repeat intro

Oceń to opracowanie

Kontrybucje
damballa

Wakacyjny Konkurs Śpiewnikowy

Pula nagród w konkursie ponad 10.000 zł!
Przysyłaj opracowania piosenek i zdobądź bony na zakupy w sklepie muzycznym.
Zapoznaj się z regulaminem konkursu.
anonim