Music of the sun Rihanna

Tekst piosenki

  • Tekst piosenki damballa
part 1 (loops through whole song):
¯¯¯¯¯¯¯¯¯¯¯¯¯¯¯¯¯¯¯¯¯¯¯¯¯¯¯¯¯¯¯¯¯
the last em7 chord (last bar) is played differently throughout the song...
sometimes, the notes are played one at a time,
other times the chord is played without the top e
the way i wrote is how it is played the first time through in the intro


am f7 g em7

1 - 2 - 3 - 4 - 1 - 2 - 3 - 4 -

e |-------0--------------0---------|------------------------0-------|
B |-----1-----1--------1-------1---|-------3--------------3---3-----|
G |---2---------2----2-----------2-|-----4-----4--------4-------4---|
D |--------------------------------|---5---------5----5-----------5-|
A |0-------------------------------|--------------------------------|
E |---------------1----------------|3--------------0----------------|


am f7 g em7

1 - 2 - 3 - 4 - 1 - 2 - 3 - 4 -

e |-------0--------------0---------|----------------0---------------|
B |-----1-----1--------1-------1---|-------3--------3---------------|
G |---2---------2----2-----------2-|-----4-----4----4---------------|
D |--------------------------------|---5---------5--5---------------|
A |0-------------------------------|----------------5---------------|
E |---------------1----------------|3---------------0---------------|




part 2:
¯¯¯¯¯¯
i wasn't sure which strings to use...
so i wrote down an alternative version as well
use wutever u like best


1 - 2 - 3 - 4 - 1 - 2 - 3 - 4 -

e |--0-5-7-8-7-5-0-1------1--1-5-3-|----3-5-7-5-3---0------0----3-5-|
B |--------------------------------|--3-----------3-----------------|
G |--------------------------------|--------------------------------|
D |--------------------------------|--------------------------------|
A |--------------------------------|--------------------------------|
E |--------------------------------|--------------------------------|

repeat 2x




part 2 (alternate version):
¯¯¯¯¯¯¯¯¯¯¯¯¯¯¯¯¯¯¯¯¯¯¯¯¯¯
(i slide my index finger (1) to play the first 2 notes)


1 -- 2 -- 3 -- 4 --

e |----------------------------------------------------|
B |-------10-12-13-12-10------------------------10-08--|
G |----09----------------09-10----------10---10--------|
D |----------------------------------------------------|
A |----------------------------------------------------|
E |----------------------------------------------------|


1 -- 2 -- 3 -- 4 --

e |----------------------------------------------------|
B |-------08-10-12-10-08------------------------08-10--|
G |----07----------------07-09----------09-------------|
D |----------------------------------------------------|
A |----------------------------------------------------|
E |----------------------------------------------------|

repeat 2x


Oceń to opracowanie
Kontrybucje:
damballa
damballa
anonim