0
0

You're In My Heart Rod Stewart

Tekst piosenki i chwyty na gitarę

  • Chwyty na gitarę adii
    1 ulubiony
I didn't know what day it was
When you walked into the room.
I said 'hello' unnoticed;
You said goodbye too soon.

Breezin' through the clientele,
Spinnin yarns that were so lyrical.
I really must confess right here,
That the attraction was purely physical.

I took all those habits of yours,
Which in the beginning were hard to accept.
Your fashion sense for Beardsley prints,
I chalked up to experience.

The redheaded lady with a dutch accent
Who tried to change my point of view.
Her ad lib lines were well rehearsed,
But my heart poured out for you.

You're in my heart, you're in my soul.
You'll be my breath should I grow old.
You are my lover, you're my best friend.
You're in my soul.

You're an essay in glamour.
But you're every schoolboy's dream.
You're Celtic united, but baby I've decided
You're the best team I've ever seen.

You're a rhapsody, a comedy,
You're a symphony and a play.
You're every love song ever written,
But honey what do you see in me?

My love for you is immeasurable;
My respect for you: immense.
You're ageless, timeless, lace and fineness,
You're beauty and elegance.

And there have been many a day,
Many times I thought to leave.
But I bite my lip and turn around,
Cause you're the warmest thing I ever found.

CHORUS (repeat two times)


You're In My Heart - Chords:

INTRO:

E7+ C9 fis7 B9 + + D9
|-----------------|-------------------|------------|--2--3--4--5------
|---4--4---4--4---|------3--3--4--3---|--2---2-2---|--2--3--4--5------
|---4--4---4--4---|------3--3--3--3---|--2---2-2---|--2--3--4--5------
|---2------2------|------2------------|--2---2-2---|------------------
|-----------------|-------------------|------------|--2--3--4--5------
|---4------4------|---3---------------|--2---2-2---|------------------


VERSE: (or do this for the last bar:)
|--E-------|--dis7-------|--cis7------|--B7+ ------||     |-B7+ ----0--1--2--|
|--9------|--7------|--5-----|--4-----|| |--4-----------|
|--9------|--6------|--4-----|--3-----|| |--------------|
|--9------|--8------|--6-----|--4-----|| |--------0--1--|
|--7------|--6------|--4-----|--2-----|| |--2--4--------|
|---------|---------|--------|--------|| |--------------|

D#m7 000322 C#m7 002100

Last line of verse: (before chorus)
|--E-------|--dis7-------|--cis7-------|-E-0---A-0---||
|--9------|--7------|--5------|--0----2---||
|--9------|--6------|--4------|--1----2---||
|--9------|--8------|--6------|--2----2---||
|--7------|--6------|--4------|--2----0---||
|---------|---------|---------|--0--------||


CHORUS:
|--D2-----2---|--A0-----0---|--D2-----2---|-----A0--------||
|--3-----3---|--2-----2---|--3-----3---|-----2--------||
|--2-----2---|--2-----2---|--2-----2---|-----2--------||
|--0---------|--2-----2---|--0---------|-----2--------||
|--------0---|--0---------|--------0---|-----0--2--4--||
|------------|--------0---|------------|--------------||

|--D2-----2---|--A0-----D2--cis---|--b ------2---|--A0-----B- ------||
|--3-----3---|--2-----3--5--|--3-----3---|--2-----7-----||
|--2-----2---|--2-----2--6--|--4-----4---|--2-----8-----||
|--0---------|--2-----0--6--|--4-----4---|--2-----7-----||
|--------0---|--0--------4--|--2---------|--0-----------||
|------------|--------------|------------|--------8-----||


Oceń to opracowanie
Ocena czytelników: Doskonały 1 głos
Kontrybucje:
adii
adii
anonim
  • Marcin
    dormax2
    szukam strony z nutami roznych pisoenek na pianino
    prosze
    pozdrawiam
    dormax2@tlen.pl
    · Zgłoś · 15 lat temu