Achtung, Polen ! Skowyt

Tekst piosenki

  • Tekst piosenki Pszczoła
    4 oceny
Skowyt - Achtung Polen!
























Intro i zwrotki tak samo
e |---------x-x-------x-x------------------| |---------x-x-------x-x-----------------|
b |---------x-x-------x-x------------------| |---------x-x-------x-x-----------------|
g |---------x-x-------x-x--7-7-------------| |---------x-x-------x-x--7-9------------|
d |----7-7--x-x--7-7--x-x--7-7-----7-7-----| |----7-7--x-x--7-7--x-x--7-9--7---------|
a |----7-7--x-x--7-7--x-x--5-5-----7-7-----| |----7-7--x-x--7-7--x-x--5-7--7---------|
e |----5-5--x-x--5-5--x-x----------5-5-----| |----5-5--x-x--5-5--x-x-------5---------|

Przejście na refren

|--------------------------------------|
|--------------------------------------|
|----7------------7--------------------|
|----7------------7--------------------|
|----5------------5--------------------|
|--------------------------------------|
refren:
|----------------------------x-------| |-------------------------x-----------|
|----------------------------x-------| |-------------------------x-----------|
|----------------------11-11-x--7----| |-------------------------x--7-7-7-7--|
|---7-7-7-7-7-7-7-7----11-11-x--7----| |--7-7-7-7-7-7-7-7---4-4--x--7-7-7-7--|
|---7-7-7-7-7-7-7-7-----9-9--x--5----| |--7-7-7-7-7-7-7-7---4-4--x--5-5-5-5--|
|---5-5-5-5-5-5-5-5----------x-------| |--5-5-5-5-5-5-5-5---2-2--x-----------| X4

Speed up (disco bicie na perkusji)
gramy 2 razy

|----------x-x-x-x---------------x-x-x-x--------------------|
|----------x-x-x-x---------------x-x-x-x--------------------|
|----------x-x-x-x---------7-7-7-x-x-x-x-7-7----------------|
|----7-7-7-x-x-x-x-7-7-----7-7-7-x-x-x-x-7-7----------------|
|----7-7-7-x-x-x-x-7-7-----5-5-5-x-x-x-x-5-5----------------|
|----5-5-5-x-x-x-x-5-5-----------x-x-x-x--------------------|



|----------x-x-x-x----------x-x---x-x----|
|----------x-x-x-x----------x-x---x-x----|
|----------x-x-x-x--------7-x-x-7-x-x-7--|
|----7-7-7-x-x-x-x-7-7----7-x-x-7-x-x-7--|
|----7-7-7-x-x-x-x-7-7----5-x-x-5-x-x-5--|
|----5-5-5-x-x-x-x-5-5------x-x---x-x----|

Całkowita przegrana,
Polska duma podeptana.
|
|
\ | /
\ | /
|-------------------------|
|-------------------5-----|
|--------6--------7--7----|
|------7---7----7---------|
|----7--------5-----------|
|--5----------------------| x7

Nagle z nieba świeci słońce,
I oświetla wrogie wojska.
|
|
\ | /
\ | /
|---------x-x-------x-x-----------------| |---------x-x-------x-x-------------------|
|---------x-x-------x-x-----------------| |---------x-x-------x-x-------------------|
|---------x-x-------x-x--7-7------------| |---------x-x-------x-x--7-9--------------|
|----7-7--x-x--7-7--x-x--7-7----7-7-----| |----7-7--x-x--7-7--x-x--7-9--7-----------|
|----7-7--x-x--7-7--x-x--5-5----7-7-----| |----7-7--x-x--7-7--x-x--5-7--7-----------|
|----5-5--x-x--5-5--x-x---------5-5-----| |----5-5--x-x--5-5--x-x-------5-----------| X2
Refren:
|----------------------------x-------| |-------------------------x-----------|
|----------------------------x-------| |-------------------------x-----------|
|----------------------11-11-x--7----| |-------------------------x--7-7-7-7--|
|---7-7-7-7-7-7-7-7----11-11-x--7----| |--7-7-7-7-7-7-7-7---4-4--x--7-7-7-7--|
|---7-7-7-7-7-7-7-7-----9-9--x--5----| |--7-7-7-7-7-7-7-7---4-4--x--5-5-5-5--|
|---5-5-5-5-5-5-5-5----------x-------| |--5-5-5-5-5-5-5-5---2-2--x-----------| X4
X4
Hej... to chyba koniec!

|----------------------------------------------|
|----------------------------------------------|
|----------------------------------------------|
|---7-7-7-7-7-7-7-7-7-7-7-7-7-7-7-7-7----------|
|---7-7-7-7-7-7-7-7-7-7-7-7-7-7-7-7-7----------|
|---5-5-5-5-5-5-5-5-5-5-5-5-5-5-5-5-5----------|
taby ze słuchy by Pszczółek



Oceń to opracowanie
Ocena czytelników: Doskonały 4 głosy
Kontrybucje:
Pszczoła
Pszczoła
anonim