0
0

Forever yours Sunrise Avenue


Gitara prowadząca:

There&hea llip;…&helliFp;………&hellipC;……&he(E)llip;……..open
There&hea llip;…&helliFp;………&hellipC;……&he(E)llip;……..on me
There&hea llip;…&helliFp;………&hellipC;……………..hurt you
I…F……………&Chellip;……………teras
I…F…………&heCllip;………hell, I know you


Ref.
a I wilEl………&hFellip;……..more
Someone…&Ghellip;…&hellCip;…..for
Shame&hellipC7;……&hellid p;……..baby,
CFor(F)ever Eyoura

Druga zwrotka jest grana tak samo jak poprzednia!

Druga gitara:

Wchodzi w refrenie

I will find something more
E1|-0-0-0------------|
H2|-----------3-1----|
G3|--------4---------|
Dsus4|------------------|
A5|------------------|
E6|------------------|

Someone I made for
E1|-----------------|
H2|-6-6-6-------5---|
G3|---------9-7-----|
Dsus4|-----------------|
A5|-----------------|
E6|-----------------|



Same on you baby
E1|-----3------1-----|
H2|--1---------------|
G3|-------5-4--------|
Dsus4|------------------|
A5|------------------|
E6|------------------|

Forever Yours
E1|------------------|
H2|--3---------------|
G3|-----5-4----------|
D4|-----------7------|
A5|------------------|
E6|------------------|

Druga gitara gra tylko w refrenie, ale w zwrotkach może wtórować pierwszej!!!


Oceń to opracowanie
Ocena czytelników: Doskonały 1 głos
Kontrybucje:
majeczka
majeczka
anonim