She´s like the wind Swazy Patrick

Tekst piosenki

  • Tekst piosenki Daro
    1 ocena
She´s like the wind - Swazy Patrick
----------------------------------------------------------------------------

EADGBe
Am 001220
G3 355433
D 000232
C 032010
F 033211

Intro: (2x)
e|-3-----2-3-----------2-3-----------2-3-----------2-3---------------------|
B|---5-------------5-------------5-------------5---------------------------|
G|-----5-------------5-------------5-------------5-------------------------|
D|-------------------------------------------------------------------------|
A|-------------------------------------------------------------------------|
E|-------------------------------------------------------------------------|
(play this during Vers 1)

Verse 1:
She's like the wind through my tree
She rides the night next to me
She leads me through moonlight
Only to burn me with the sun
She's taken my heart
But she doesn't know what she's done

Chorus:
a G3
e|-----0---------------0-------------------3-----------3-------------------|
B|-----1-----------------1-----------------3-------------3-----------------|
G|-----2-------------------2---------------4---------------4---------------|
D|-----2---------------------2-------------5-----------------5-------------|
A|-----0-----------------------------------5-------------------------------|
E|-----0-----------------------------------3-------------------------------|

Feel her breath on my face Her body close to me


a G3 D
e|-----0---------------0-------------------3----------2--------------------|
B|-----1-----------------1-----------------3----------3--------------------|
G|-----2-------------------2---------------4----------2--------------------|
D|-----2---------------------2-------------5----------0--------------------|
A|-----0-----------------------------------5-------------------------------|
E|-----0-----------------------------------3-------------------------------|

Can't look in her eyes She's out of my league

(Distortion)
C F a
e|-0--0--------1-------------------------1------------0--------------------|
B|-1--1--------1-------------------------1------------1--------------------|
G|-0--0--------2-------------------------2------------2--------------------|
D|-2--2--------3-------------------------3------------2--------------------|
A|-3--3--------3-------------------------3------------0--------------------|
E|-0--0--------0-------------------------0------------0--------------------|

Just a fool to believe I have anything she needs
She´s like the wind



e|-3-----2-3-----------2-3-----------2-3-----------2-3-----------2-3-------|
B|---5-------------5-------------5-------------5-------------5-------------|
G|-----5-------------5-------------5-------------5-------------5-----------|
D|-------------------------------------------------------------------------|
A|-------------------------------------------------------------------------|
E|-------------------------------------------------------------------------|

:)


Oceń to opracowanie
Ocena czytelników: Fatalny 1 głos
Kontrybucje:
Daro
Daro
anonim
  • Kacper
    nonuś
    nic piękniejszego nie słyszałam
    · Zgłoś · 15 lat temu
  • Kacper
    marta
    ta piosenka jest porostu piekna
    · Zgłoś · 15 lat temu
  • Kacper
    gosciu
    no... tylko.. pomocy! jak to odczytac? :P
    · Zgłoś · 15 lat temu
  • Kacper
    byk
    heh co to ma byc to sa przetlumaczone piosenki fest bombaaa heheh
    · Zgłoś · 16 lat temu

Najpopularniejsze piosenki Swazy Patrick