0
0

Tamta dziewczyna Sylwia Grzeszczak

Tekst piosenki i chwyty na gitarę

  • Chwyty na gitarę Średni Tonacja e
    95 ulubionych
N.C.
e|-8---------|-------------|
B|------9----|-8--6--4--3--| piano + gtr
G|-----------|-------------|
D|-6---------|-------------|
A|------8----|-6--5--3--2--| bass
E|-----------|-------------|


c Tamta dzif ewczyna mieszka Disparę myśli Gstąd
c W tej samej f głowie czasem Disprzypomina Gmnie
c Ale ma f siłę, jaką Dismiewa mało Gkto
c A kiedy f trzeba umie Disgłośno mówić "Gnie"
c Czy f na DispewGno?  c Czy f już Disznasz Gją?


Ona e nie chce Cbyć, Gtaka sama jak H7ja
Nie zna e granic  Ci Gnie zamierza się H7bać
Nie zae trzyma Csię, Gkiedy ty będziesz H7chciał
Ona e nie chce Cbyć, Gtaka sama jak H7ja
(e OooCooGooH7oo)e  Którą z Cnas chcesz Gkochać, którą z H7nas?


e Tamta dziewCczyna, tak Gmało o niej H7wiesz
Ma e siłę by Cmarzyć i Gtak zazdroszczę H7jej
e Bo właśnie Ctaką  byłam Gnim przyszedłeś H7tu
e I w głowie Cwciąż jeszcze Gmam tyle H7snów
e A razem Cdawno już nie Gdotykamy H7wiazd
e Tamtą dzieCwczyną mogę Gstać się jeszcze H7raz


Ona e nie chce Cbyć, Gtaka sama jak H7ja
Nie zna e granic  Ci Gnie zamierza się H7bać
Nie zae trzyma Csię, Gkiedy ty będziesz H7chciał
Ona e nie chce Cbyć, Gtaka sama jak H7ja
(e OooCooGooH7oo)e  Którą z Cnas chcesz Gkochać, którą z H7nas?


e Tamta dziewCczyna, tak Gmało o niej H7wiesz
Ma e siłę by Cmarzyć i Gtak zazdroszczę H7jej

e|-------0-2-|e -3--0--C-----|-G3----H72----0-2-|e -3--0--C-----|-G3----H72--------|e ---------C------|
B|-----------|-------1----|---------------|-------1----|---------------|-----0---1-----|
G|-----------|------------|---------------|------------|---------------|-0-------------|
D|-----------|------------|-2-------------|------------|-----------2-4-|---------------|
A|-----------|-------2----|------3--------|-------2----|------3--------|---------2-----|
E|-----------|-3----------|---------------|-3----------|-0-------------|-3-------------|
e|-G------------H7--------|e ---------C-----|-G------------H7-----|
B|---------------------|-----0---1----|------------------|
G|-4---4---------------|-0------------|-4---4------------|
D|---------5---4---2-4-|--------------|---------5---4----|
A|-------------2-------|---------3----|-------------2----|
E|-3-------------------|-0------------|-3----------------|


Ona e nie chce Cbyć, Gtaka sama jak H7ja
Nie zna e granic  Ci Gnie zamierza się H7bać
Nie zae trzyma Csię, Gkiedy ty będziesz H7chciał
Ona e nie chce Cbyć, Gtaka sama jak H7ja

Ona e nie chce Cbyć, Gtaka sama jak H7ja
Nie zna e granic  Ci Gnie zamierza się H7bać
Nie zae trzyma Csię, Gkiedy ty będziesz H7chciał
Ona e nie chce Cbyć, Gtaka sama jak H7ja
(e OooCooGooH7oo)e Którą z Cnas chcesz Gkochać, którą z H7nas?


e Tamta dziewCczyna, tak Gmało o niej H7wiesz
Ma e siłę by Cmarzyć i Gtak zazdroszczę H7jej
e|-----------|e --------C-----|-G------------H7--------|e --------C-----|G-------------H--------|
B|-----------|-------------|---------------------|-------------|---------------------|
G|-------2-4-|-5---2-------|---------------------|-------------|---------------------|
D|-----------|--------3----|-5-4-5---4-5-4---2-4-|-5---2-------|-5-4-5---4-5-4-------|
A|-----------|-------------|---------------------|--------3----|---------------------|
E|-----------|-------------|---------------------|-------------|---------------------|

Oceń to opracowanie
Ocena czytelników: Niczego sobie 42 głosy
anonim
  • Kacper
    olinex
    może tamta maszyna?
    · Zgłoś · 4 lata temu
  • Kacper
    .ja.
    Słabe można inne?
    · Zgłoś · 5 lat temu
  • Kacper
    e.k.
    dupa
    · Zgłoś · 5 lat temu