Popraw Opracowanie
Transponuj
0

Something to belive in The Offspring

Tekst piosenki

  • Tekst piosenki -=art=-
intro with pickscrape

|----------------------|
|----------------------|
|-10---------5-8----10-|
|-10-3--5-6--5-8--8-10-|
|-8--3--5-6--3-6--8-8--|
|----1--3-4-------6----|

verse

|-----------------------------------|Two rhythms with these chords,
|-----------------------------------|easy to work out. Play chord in
|----------8-8--3-3-3-3---------(5)-|brackets on last one of each
|-6-6-6-6--8-8--3-3-3-3--3-3----(5)-|verse.
|-6-6-6-6--6-6--1-1-1-1--3-3----(3)-|
|-4-4-4-4----------------1-1--------|

chorus

|----------------|
|----------------|
|---10---8--13-8-|
|-3-10-6-8--13-8-|
|-3-8--6-6--11-6-|
|-1----4---------|

|----------|
|----------|
|-----TREM-|
|-3---3----|
|-3---3----|
|-1---1----|

Oceń to opracowanie

Kontrybucje
-=art=-

Wakacyjny Konkurs Śpiewnikowy

Pula nagród w konkursie ponad 10.000 zł!
Przysyłaj opracowania piosenek i zdobądź bony na zakupy w sklepie muzycznym.
Zapoznaj się z regulaminem konkursu.
anonim