0
0

Krasnoludki Typy polskie (ludowe)

Tekst piosenki i chwyty na gitarę

  • Chwyty na gitarę Początkujący Tonacja C
    2 ulubione
---------------------
melodia

E|-----0---|-----0---|-----0---|-0-------|
H|-1-1---1-|-1-1---1-|-1-1---1-|---4-3-3-|
Opłotkami przez ogródek idzie pierwszy krasnoludek

E|-----1---|-----1---|-3--1-0---|-0---0---|
H|-3-3---3-|-3-3---3-|--------3-|---3---1-|
Dokąd idziesz mój malutki? - Idę do swej krasnoludki.


E|---------0-|---------0-|---------0-|-----0-----|
H|-1-1-1-1---|-1-1-1-1---|-1-1-1-1---|-1-1---4-3-|
Sza-ba da-ba-da di-bi di-bi di; sza-ba da-ba-da di-bi di-bi di

E|---------1-|---------1-|-3--1-0---|-0---0---|
H|-3-3-3-3---|-3-3-3-3---|--------3-|---3---1-|
Sza-ba da-ba-da di-bi di-bi di; idę do swej krasnoludki

---------------------


COpłotkami przez ogródek
idzie pierwszy G7krasnoludek.
- Dokąd idziesz mój malutki?
- Idę do swej Ckrasnoludki.

Ref. CSza-ba da-ba-da di-bi di-bi di
Sza-ba da-ba-da di-bi G7di-bi di
G7Sza-ba da-ba-da di-bi di-bi di
Idę do swej Ckrasnoludki


Opłotkami (...)
idzie drugi krasnoludek (...)

Ref. (...)

Opłotkami (...)
idzie trzeci krasnoludek (...)

Ref. (...)

Opłotkami przez ogródek
wraca pierwszy krasnoludek.
- Skąd ty wracasz mój malutki?
- Wracam od swej krasnoludki.

Ref. (...)

Opłotkami (...)
wraca drugi krasnoludek (...)

Ref. (...)

Opłotkami przez ogródek
nie wraca trzeci krasnoludek.
- Gdzie się podział nasz malutki?
- Został u swej krasnoludki.

Ref. (...)




Oceń to opracowanie
Ocena czytelników: Niczego sobie 3 głosy
anonim

Najpopularniejsze piosenki Typy polskie (ludowe)