0
0

Zanim odejdę Ukeje

Tekst piosenki i chwyty na gitarę

  • Chwyty na gitarę Losseh
    1 ocena
Ukeje - zanim odejde
Bezlitosny świt
Cicho wkrada się
Pod cienkie powiek granice
Ważą mniej niż nic
Chyba mniej niż potok słów
Wylanych aby utopić strach

Betonowy chłód
Mokre ślady stóp
Zwyczajnie znikną jak resztki snu
Chcę uciekać już
Nikt nie będzie gonić chciał
Do nie domkniętych drzwi nie zapuka nikt

Refren:
Zanim odejdę h D/F#
Spojrzę za siebie C G
Jeszcze raz D/F#
Bezkresna przestrzeń h D/F#
Pusty był mój świat C
Nic już tu nie trzyma mnie D/F#

Myśli pędzą znów
Jak gromy strzał
Zbłąkane kule odnajdą cel
Znaczą mniej niż nic
Mniej niż kropli wody ślad
Na szybie za którą nic nie czeka już

Zanim odejdę
Spojrzę za siebie
Jeszcze raz
Bezkresna przestrzeń
Pusty jest mój świat
Nic już tu nie trzyma mnie
/3x


intro
e|--------------------------------------------------f12------------
h|------------0---------------0---------------0------------f12-----
g|-------0-h2------------0-h2------------0-h2-----------f7---------
d|-----2---------------2---------------2---------------------------
a|-----------------------------------------------------------------
E|---0---------------0---------------0------------0----------------

e|-----------------------------------------------------------------
h|------------0---------------0---------------0----------f7--------
g|-------0-h2------------0-h2------------0-h2---------------f7-----
d|-----2---------------2---------------2------------2----------f7--
a|-----------------------------------------------------------------
E|---0---------------0---------------0------------0----------------

e|--------------------------------------------------f12------------
h|------------0---------------0---------------0------------f12-----
g|-------0-h2------------0-h2------------0-h2-----------f7---------
d|-----2---------------2---------------2---------------------------
a|-----------------------------------------------------------------
E|---0---------------0---------------0------------0----------------

zwrotka

e|------------------------------------------------------------------
h|------------0---------------0---------------0---------------0-----
g|-------0-h2------------0-h2------------0-h2------------0-h2-------
d|-----2---------------2---------------2---------------2------------
a|------------------------------------------------------------------
E|---0---------------0---------------0---------------0--------------

e|------------------------------------------------------------------
h|------------------------------------------------------------------
g|-------0---------0---------0---------2----------------------------
d|-----4---4-----4---4-----4---4-----0---0--------------------------
a|------------------------------------------------------------------
E|---0---------0---------0---------0--------------------------------

e|------------------------------------------------------------------
h|------------0---------------0---------------0---------------0-----
g|-------0-h2------------0-h2------------0-h2------------0-h2-------
d|-----2---------------2---------------2---------------2------------
a|------------------------------------------------------------------
E|---0---------------0---------------0---------------0--------------

e|--------------------------------------------------2-2-2-2-2-2-----
h|--------------------------------------------------3-3-3-3-3-3-----
g|-------0---------0---------0---------2------2-----2-2-2-2-2-2-----
d|-----4---4-----4---4-----4---4-----0---0----0-----0-0-0-0-0-0-----
a|------------------------------------------------------------------
E|---0---------0---------0---------0--------------------------------

refren (zgodnie z akordami w tekscie)

f[numer] oznacza flażolet


Oceń to opracowanie
Ocena czytelników: Doskonały 1 głos
Kontrybucje:
Losseh
Losseh
anonim

Najpopularniejsze piosenki Ukeje

Podobni wykonawcy

Lorein

Lorein

32 piosenki