Wakacyjny Konkurs Śpiewnikowy
Wakacyjny Konkurs Śpiewnikowy
Popraw Opracowanie Usuń
Transponuj
0

Wstyd Varius Manx

Tekst piosenki i chwyty na gitarę

Wstęp:

E||-------2-----2-----0-----0-------|-------2-----2-----0-----0-------|
B||-----0---0-----0-----0-----0---0-|-----0---0-----0-----0-----0-----|
G||---0-------0-----0-----0-----0---|---0-------0-----0-----0---------|
D||-2-------------------------------|-2---------------------------2-0-|
A||---------------------------------|---------------------------------|
E||---------------------------------|---------------------------------|

E||-------2-----3-----2-----0-------|-------2-----3-----2-----0-------|
B||-----0---0-----0-----0-----0---0-|-----0---0-----0-----0-----0-----|
G||---0-------0-----0-----0-----0---|---0-------0-----0-----0---------|
D||---------------------------------|-------------------------------0-|
A||-3-------------------------------|-3---------------------------3---|
E||---------------------------------|---------------------------------|

Zwrotka:
może być grana na pojedynczych dźwiękach tak jak wstęp lub na chwytach:

   e
Znalazłam sny...
       C
Przewiązane...
    e
Nie taki...
    C
Nie tak...


Refren:
D         a    C   G
Zasłaniam ręką...
D a C G
D a C G
D a C
          e
...Smutno mi

Reszta zwrotek grana tak samo jak ta powyżej, refren oczywiście też :)

Em,C,D,Am,G
Oceń to opracowanie
Ocena czytelników: Niczego sobie 1 głos

Kontrybucje
Wystarczy  Mika

Wakacyjny Konkurs Śpiewnikowy

Pula nagród w konkursie ponad 10.000 zł!
Przysyłaj opracowania piosenek i zdobądź bony na zakupy w sklepie muzycznym.
Zapoznaj się z regulaminem konkursu.
anonim