habanera z opery Carmen Violetta Villas

Tekst piosenki

  • Tekst piosenki Paulina
    1 ulubiony
 e|------------|-----------------|--------------|---------------|-------------|
H|------3--2--|--1--1--1--0-----|--------------|---------------|-------3--2--|
G|------------|--------------3--|--2---2-1--0--|---------0-----|-------------|
D|------------|-----------------|--------------|--3--2-3----3--|--2----------|
A|------------|-----------------|--------------|---------------|-------------|
E|------------|-----------------|--------------|---------------|-------------|

|-----------------|--------------|---------------|-------------|
|--1--1--1--0-----|--------------|---------------|-------3--2--|
|--------------3--|--2---2-0-----|---------------|-------------|
|-----------------|-----------3--|--2--0-2-3--2--|--0----------|
|-----------------|--------------|---------------|-------------|
|-----------------|--------------|---------------|-------------|

|-----------------|--------------|---------------|-------------|
|--1--1--1--0-----|--------------|---------------|-------3--2--|
|--------------3--|--2---2-1--0--|---------0-----|-------------|
|-----------------|--------------|--3--2-3----3--|--2----------|
|-----------------|--------------|---------------|-------------|
|-----------------|--------------|---------------|-------------|

|-----------------|--------------|---------------|--------------|--------------|
|--1--1--1--0-----|--------------|---------------|--------------|--------------|
|--------------3--|--2---2-0-----|---------------|------2-------|------2-------|
|-----------------|-----------3--|--2--0-2-3--2--|--0-----0--2--|--4-----4--2--|
|-----------------|--------------|---------------|--------------|--------------|
|-----------------|--------------|---------------|--------------|--------------|

|--------------|----------------|--------------|--------------|--------------|
|--------------|----------0-----|------0-------|------0-------|--------------|
|-----------0--|--2-2-2-2----2--|--0-----------|--0-----0-----|--------0--2--|
|--0---2-4-----|----------------|--------2--4--|-----------4--|--2---4-------|
|--------------|----------------|--------------|--------------|--------------|
|--------------|----------------|--------------|--------------|--------------|

|----------------|-----------0--|--2-----------|--------------|----------------|
|--0-0-0-0-2--0--|--------3-----|--------------|--------------|----------3--2--|
|----------------|--2---2-------|------2-------|-----------0--|--2-2-2-2-------|
|----------------|--------------|--------4--2--|--0---2-4-----|----------------|
|----------------|--------------|--------------|--------------|----------------|
|----------------|--------------|--------------|--------------|----------------|

|--------0--2--|--3-----------|--------------|----------2-0-2-0-|-----------|
|------0-------|------0-------|--------------|--2-0-------------|--3--------|
|--0-----------|--------0-----|--------0--2--|------1-2---------|-----------|
|--------------|-----------4--|--2---4-------|------------------|-----------|
|--------------|--------------|--------------|------------------|-----------|
|--------------|--------------|--------------|------------------|-----------|

Oceń to opracowanie
Ocena czytelników: Niczego sobie+ 3 głosy
Kontrybucje:
Paulina
Paulina
anonim
  • Anonimowy użytkownik
    Pola Jabur 5 lat temu

    bardzo dobre dzwięki sóper wychodzi mi to na gitarze