0
0

Spirit Bird Xavier Rudd

Tekst piosenki i chwyty na gitarę

  • Chwyty na gitarę Początkujący
    1 ulubiony
1° Palcowanie

Początek muzyki

E|-1--F---------1-----------3--------1----1----------------------------------|
B|----1-----------1-----------1-------------1-------------------------------|
G|-------2-----------2-----------2-------------2----------------------------|
D|-3--------3-----------3--3--------3----3----------------------------------|
A|--------------------------------------------------------------------------|
E|--------------------------------------------------------------------------|

E|--a -----------0------------------------------------------------------------|
B|-1--------------2--------3--------1----1----------------------------------|
G|----2--------------2--------2-------------2-------------------------------|
D|-------2-----------------------2-------------2----------------------------|
A|-0--------0-----------0--0--------0----0----------------------------------|
E|--------------------------------------------------------------------------|

E|----C---------0------------------------------------------------------------|
B|-1--------------1--------3--------1----1----------------------------------|
G|----0--------------0--------0-------------0-------------------------------|
D|-------2-----------------------2-------------2----------------------------|
A|-3--------3-----------3--3--------3----3----------------------------------|
E|--------------------------------------------------------------------------|

E|----G---------3------------------------------------------------------------|
B|-0--------------0--------1--------1----3----------------------------------|
G|----0--------------0--------0-------------0-------------------------------|
D|-------0-----------------------0------------------------------------------|
A|--------------------------------------------------------------------------|
E|-3--------3-----------3--3--------3---------------------------------------|


2° Palcowanie

E|-F1--------a --------Asus4---a ---C--------G3------C/E-----G---F1--------------------------|
B|-1--------1-------3--1--1-------0--------1--3--1--------------------------|
G|-2--------2-------2--2--0-------0--------0--0--2--------------------------|
D|-3--------2-------2--2--2----------------2--0--3--------------------------|
A|----------0-------0--0--3-------------------------------------------------|
E|--------------------------------3--------3--3-----------------------------|


FGive it time and wonder why a do what we can laugh and we cry
And we sCleep in your dust because we've seen this all beforGe.a    Asus4  

FCulture fades with tears and grace a leaving us stunned Asus4hollow with shame
We have seC/Een this all, seen this all beforGe.a    Asus4  

FMany tribes of a modern kind, doinga brand new work, same sAsus4pirit by side,
Joining heaCrts and hand and ancestral twine, anceGstral twine. a    Asus4  
FMany tribes of a modern kind, doing ba rand new work, same spAsus4irit by side,
joining heCarts and hand and ancestral twine, ancesGtral twine. a    Asus4  

1° palcowanie

FSlowly it a fades.C Slowly weG fade,
FSlowly it a fades.C Slowly weG fade.

2° Palcowanie

FEmanayoyoyoyoa Emanayoyoyo CEmanayoyoyoyGo Emanayoyoyo
FEmanayoyoyoyoa Emanayoyoyo CEmanayoyoyoyGo Emanayoyoyo

FSpirit bird she creaks and groans she kna ows she has,
Seen this all befCore she has, seen this all beGfore. a    Asus4  

FSpirit bird she creaks and groans she knoa ws she has,
SAsus4een this all befoC/Ere she has, seen this all beGfore. a    Asus4  

1° palcowanie

FSlowly it fa ades.C Slowly you Gfade
FSlowly it fa ades.C Slowly you Gfade


Rozpocznij bicie tylko na dół tymi samymi akordami co 1° palcowanie

FEmanayoyoyoyoa Emanayoyoyo CEmanayoyoyoyGo Emanayoyoyo
FEmanayoyoyoyoa Emanayoyoyo CEmanayoyoyoyGo Emanayoyoyo

Soldier Fon, soldier on my good ca ountry man.
Keep fighting for your cCulture, now keep fighting for your lGand.

I know its been thousands of Fyears and I feel your hurt and I know its wa rong
And you feel you've been chained and broken and burCned
And those beautiful old people those wise old sGouls have been ground down for far too long
By tFhat spineless man, that greedy man, tha at heartless man, deceiving man
That goveCrnment hand, taking blood and land, taking bloodG and land and still they can,
BFut you're dreaming and your warrior spirit lia ves on and it is so so so stCrong
In the earth in the trees in the rocks in the Gwater in your blood and in the air we breath.


Soldier oFn, soldier on my good coua ntry man, keep fighting for your chilCdren
Now keep fighting for your landG.



FSlowly ia t faaaaaaaaadesC, slowly we Gfaaaaaaaaade
FSlowly wa e faaaaaade, sClowly it fGaaaaaaaades.



2° Palcowanie x2

FEmanayoyoyoyoa Emanayoyoyo CEmanayoyoyoyGo Emanayoyoyo


1° Palcowanie
Give it time and we wonder wFhy do what we can laugh and we cry
And we sla eep in your dust because we've seen it all before.



Oceń to opracowanie
Ocena czytelników: Doskonały 1 głos
Kontrybucje:
Alicja
Alicja
anonim

Najpopularniejsze piosenki Xavier Rudd