Konkurs na nową zwrotkę Morskich Opowieści!

Napisz własną zwrotkę "Morskich Opowieści", nagraj ją w postaci filmu i prześlij na adres redkacji śpiewnika aby wziąć udział w losowaniu wyjątkowego ukulele i wspaniałych kapodastrów.

Szczegóły konkursu
0
0

Here without you 3 Doors Down

Tekst piosenki i chwyty na gitarę

  • Chwyty na gitarę damballa
    27 ulubionych
Guitar 1

Riff 1
e|---------------------------------------------------------------------------|
B|-------1-----0-----0---1--------------2---------------0--------------------|
G|-----2---2-----2-----2---2----------3---3---------0-----0------------------|
D|---2-------2-----2---------2------3-------3-----0---0-----0----------------|
A|-0---------------------------0--1------------2-----------------------------|
E|---------------------------------------------3-----------------------------|

Riff 2
e|---------------------------------------------------------------------------|
B|-------1-----0-----0---1--------------0-----1-----0-----1/3----------------|
G|-----2---2-----2-----2---2----------0----0-----0-----0---------------------|
D|---2-------2-----2---------2------0----------------------------------------|
A|-0---------------------------0---------------------------------------------|
E|--------------------------------3------------------------------------------|

These are the riffs for the Intro and Verse's. The first Chorus is a variation
of these riffs, though I don't know it. The second Chorus I believe is yet
another variation of these riffs which is played over Guitar 2 (also don't know,
sadly enough).

Guitar 2 - Doesn't play much. Just the chords in the chorus. In the first chorus,
Guitar 2 doesn't play.
Since not everyone has a violin or someone to play it, Guitar 2 can just play
these chords where the violins would be.

	C	G	a	F
e|------3-------3-------0-------1--------------------------------------------|
B|------3-------3-------1-------1--------------------------------------------|
G|------5-------4-------2-------2--------------------------------------------|
D|------5-------5-------2-------3--------------------------------------------|
A|------3-------5-------0-------3--------------------------------------------|
E|------3-------3---------------1--------------------------------------------|


Chorus:

C                          G
I'm here without you baby, but your still on my lonely mind
a                      F		 G
I think about you baby, and I dream about you all the time
C                           G                                  a
I’m here without you baby, but your still with me in my dreams
 F           G
And tonight it’s only you and me


Bridge:

a                  C
Everything I know, and anywhere I go
G                         F
it gets hard but it won’t take away my love
a                           C
And when the last one falls, when it’s all said and done
G                 F                                 C    G a   F   G
it get hard but it won’t take away my love


Chorus:

C                          G
I'm here without you baby, but your still on my lonely mind
a                      F		 G
I think about you baby, and I dream about you all the time
C                           G                                  a
I’m here without you baby, but your still with me in my dreams
 F           G                 C     G   a F  G
And tonight it’s only you and me



Everything shown here can be played on one guitar easily.
There are a few other riffs which I haven't tabbed out yet that would require a
second guitar.
But as for now this is all I can provide.

Questions & Comments send to adidas2684@hotmail.com with subject related to these
tabs, just so I don't delete it thinking its junk :)

| /  slide up
| \  slide down
| h  hammer-on
| p  pull-off
| ~  vibrato
| +  harmonic
| x  Mute note

Oceń to opracowanie
Ocena czytelników: Doskonały 1 głos
Kontrybucje:
damballa
damballa

Dodaj własne wykonanie

Umiesz zagrać tą piosenkę? Nagraj swoje wykonanie i pokaż innym jak grasz!
anonim
  • majeczka
  • samilp95
    samilp95 11 lat temu

    e|---------------------------------------------------------------------------|
    B|-------1-----0-----0---1--------------0-----1-----0-----1/3----------------|
    G|-----2---2-----2-----2---2----------0----0-----0-----0---------------------|
    D|---2-------2-----2---------2------0----------------------------------------|
    A|-0---------------------------0---------------------------------------------|
    E|--------------------------------1--------3----------------------------------|

  • samilp95
    samilp95 11 lat temu

    w 'Riff 2" jedyny dźwięk na najgrubszej strunie... zamiast 3 dałabym 1 ;)