Kryptonite (bass) 3 Doors Down

Tekst piosenki

  • Tekst piosenki damballa
INTRO: With drums
G|--------------|--------------|
D|--------------|--------------|
A|-2------2-----|-2------2-----|
E|---3-5----3-5-|---3-5----3-5-|

Verse1:
G|--------------|--------------|--------------|--------------|--------------|
D|--------------|--------------|--------------|--------------|--------------|
A|-2------2-----|-2------2-----|-2------2-----|-2------2-----|-2------2-----|
E|---3-5----3-5-|---3-5----3-5-|---3-5----3-5-|---3-5----3-5-|---3-5----3-5-|

Chorus:
G|--------------|--------------|
D|--------------|--------------|
A|-2------2-----|-2------2-----|
E|---3-5----0-2-|---3-5----0-2-|

Verse2:
G|--------------|--------------|--------------|
D|--------------|--------------|--------------|
A|-2------2-----|-2------2-----|-2------2-----|
E|---3-5----3-5-|---3-5----0-2-|---3-5----0-2-|

Chorus:
G|--------------|--------------|
D|--------------|--------------|
A|-2------2-----|-2------2-----|
E|---3-5----0-2-|---3-5----0-2-|

Solo:
G|--------------|--------------|--------------|
D|--------------|--------------|--------------|
A|-2------2-----|-2------2-----|-2------2-----|
E|---3-5----0-2-|---3-5----0-2-|---3-5----0-2-|

Verse3:
G|--------------|--------------|--------------|
D|--------------|--------------|--------------|
A|-2------2-----|-2------2-----|-2------2-----|
E|---5-3----5-3-|---5-3----5-3-|---5-3----5-3-|

Chorus:
G|--------------|--------------|
D|--------------|--------------|
A|-2------2-----|-2------2-----|
E|---3-5----0-2-|---3-5----0-2-|

Solo:
G|--------------|--------------|--------------|
D|--------------|--------------|--------------|
A|-2------2-----|-2------2-----|-2------2-----|
E|---3-5----0-2-|---3-5----0-2-|---3-5----0-2-|

End:
G|---|
D|---|
A|-2-|
E|---|

Oceń to opracowanie
Kontrybucje:
damballa
damballa

Dodaj własne wykonanie

Umiesz zagrać tą piosenkę? Nagraj swoje wykonanie i pokaż innym jak grasz!
anonim