Are You Ready AC/DC

E|--------0-----------0-----|--------0-----------0-----|
B|-----3-----3-----------3--|-----3-----3-----3-----3--|
G|-----------------3--------|--------------------------|
D|--0-----------0-----------|--------------------------|
A|--------------------------|--3-----------3-----------|
E|--------------------------|--------------------------|

|--------0-----------0-----|--------0-----------0-----|
|-----3-----3-----3-----3--|-----3-----3-----3-----3--|
|--------------------------|--------------------------|
|--------------------------|--------------------------|
|--2-----------2-----------|--3-----------3-----------|
|--------------------------|--------------------------|

|--------0-----------0-----|--------0-----------0-----|
|-----------3-----------3--|-----3-----3-----3-----3--|
|-----3-----------3--------|--------------------------|
|--0-----------0-----------|--------------------------|
|--------------------------|--3-----------3-----------|
|--------------------------|--------------------------|

|--------0-----------0-----|--------0-----------0-----|
|-----3-----3-----3-----3--|-----3-----3-----3-----3--|
|--------------------------|--------------------------|
|--------------------------|--------------------------|
|--2-----------2-----------|--3-----------3-----------|
|--------------------------|--------------------------|

|--------0-----------0-----|--------0-----------0-----|
|-----------3-----------3--|-----3-----3-----3-----3--|
|-----3-----------3--------|--------------------------|
|--0-----------0-----------|--------------------------|
|--------------------------|--------------------------|
|--------------------------|--2-----------2-----------|

|--------0-----------0-----|--------0-----------0-----|
|-----3-----3-----3-----3--|-----3-----3-----3-----3--|
|--------------------------|--------------------------|
|--------------------------|--------------------------|
|--------------------------|--------------------------|
|--3-----------3-----------|--1-----------1-----------|

|--------0-------------|------------------|
|-----3-----3----------|------------------|
|----------------------|------------------|
|----------------------|------------------|
|----------------------|------------------|
|--1-------------------|------------------|

Intro 2nd guitar:
E|--|--|--|--|--|--|--|--|-------------------|-------------------|
B|--|--|--|--|--|--|--|--|-------------------|-------------------|
G|--|--|--|--|--|--|--|--|-------------------|-------------------|
D|--|--|--|--|--|--|--|--|--7----------------|-------------------|
A|--|--|--|--|--|--|--|--|--5----------------|--5----------------|
E|--|--|--|--|--|--|--|--|-------------------|--2----------------|

|-------------------|-------------------|-------------------|
|-------------------|-------------------|-------------------|
|-------------------|-------------------|-------------------|
|-------------------|-------------------|-------------------|
|--5----------------|--3----------------|--3----------------|
|--3----------------|--1----------------|--1----------------|


verse riff:
guitar 1
|--------------------------|---------------------|
|--------------------------|---------------------|
|--7--7--7--5--5--7-----7--|-----------5---------|
|--7--7--7--5--5--7-----7--|------3----5----5----|
|--5--5--5--3--3--5-----5--|------3----3----5----|
|--------------------------|------1---------3----|
guitar 2
E--------------------------|---------------------|
B--------------------------|---------------------|
G--7--7--7--5--5--7-----7--|------10---5---------|
D--7--7--7--5--5--7-----7--|------10---5----5----|
A--5--5--5--3--3--5-----5--|------8----3----5----|
E--------------------------|----------------3----|


Pre Chorus
E|-------------0--------------|--------------0----------------|
B|----------3---------3-----3-|-----------3----------3-----3--|
G|-------2---------------2----|--------2----------------2-----|
D|----0-----------0-----------|-------------------------------|
A|----------------------------|-------------------------------|
E|----------------------------|---2--------------2------------|

E|----------------------------|------------0------------------|
B|-----3-----3-------3-----3--|---------3-----------3-----3---|
G|--------2-------------2-----|------2-----------------2------|
D|----------------------------|-------------------------------|
A|----------------------------|-------------------------------|
E|--3-------------3-----------|--1-------------1--------------|

Chorus

guitar 1
|------------------------|------------------------|----------------------------|--------------------|
|------------------------|------------------------|----------------------------|--------------------|
|------------------------|------------------------|----------------------------|--------------------|
|--7--7--7--5--5--7------|--5--5--5--5--5--5------|--5--5--5--5--4--4--5-------|--5--5--5--5--5--5--|
|--5--5--5--3--3--5------|--3--3--3--2--2--3------|--2--2--2--2--0--0--2-------|--3--3--3--2--2--3--|
|------------------------|------------------------|----------------------------|--------------------|
Guitar 2
|------------------------|------------------------|----------------------------|--------------------|
|------------------------|------------------------|----------------------------|--------------------|
|------------------------|------------------------|----------------------------|--------------------|
|--7--7--x--9-----7------|--5--5--5--5--5--5------|--5--5--5-----4--4--5-------|--5--5--5--5--5--5--|
|--5--5--x--8-----5------|--3--3--3--2--2--3------|--3--3--3-----0--2--3-------|--3--3--3--2--2--3--|
|------------------------|------------------------|----------------------------|--------------------|

FILL AFTER CHORUS

E---------------------------------------------------------------------------|
B---13~~~--12-12--10--------13~~~--12-----------13~~~~---12-12--10-----13---|
G---14~~~--12-12--10-12-----14~~~--12--------12-14~~~~---12-12--10-----14---|
D--------------------12--------------------------------------------12-------|
A---------------------------------------------------------------------------|
E---------------------------------------------------------------------------|


SOLO

# Either drop the tuning peg down or use a whammy bar if you have one, on live version Angus just
shook the 12th fret
E|---------|-----------------------------------------------------------------------------------|
B|---------|----13b--13b---13------------------------------------------------PH.....----\--/---|
G|---------|------------------12-13br---10-----------------------------------------------------|
D|---------|-------------------------------12~~~~~----3--5b-r-3-5b-r-3-----------<3>-----------|
A|---------|-----------------------------------------------------------5-5-5-<5>---------------|
E|#-(0)-\-#|-----------------------------------------------------------------------------------|

E|---------------------------------10----10-------10-10------------------------------10--------|
B|--12b-r-10--12b-r-10-12b-12b--------10----13b----------12b-r-b-r-b-r-b-r--------------13-12b-r
G|--12b-r-10--12b-r-10-12b-12b---------------------------12b-r-b-r-b-r-b-r---12--12b-------12b-r
D|---------------------------------------------------------------------------------------------|
A|---------------------------------------------------------------------------------------------|
E|---------------------------------------------------------------------------------------------|
ryth; (D5) (d/f#) (G5) (F5)
E|---------13b-10------------------------------------------------------------------------------|
B|----------------13-10-12b-12b-12-------------------------------------------------------------|
G|--10-----------------------------10----12-10--------------------------10---------<10\>-12<14>|
D|-----12-----------------------------12-------12-10-12-10-10-\-x-12-12------12-12-------------|
A|---------------------------------------------------------------------------------------------|
E|---------------------------------------------------------------------------------------------|

E|---------------------------------------------------------------------------------------------|
B|-------------------------------------------------13-----13-----13-----13---------------------|
G|-------------------------------10-12b-r-10-12b------12b----12b----12b---(12^14)trill.........
D|--------10-10-12---------10-12---------------------------------------------------------------|
A|--12-12---------------12---------------------------------------------------------------------|
E|---------------------------------------------------------------------------------------------|

E|-------------13-15b-15b-15b--hold bend--------|
B|----------15----------------------------------|
G|--15--12--------------------------------------|
D|--15------------------------------------------|
A|----------------------------------------------|
E|----------------------------------------------|


solo bit during pre chorus
E|--------------------------------------------------------------------------|
B|-13b-r-10---------------------------10-13-----10-13-----13----------------|
G|----------12bb-r~~~~~~~~~-------12b-------12b-------12b----12~~~~~~~~~~---|
D|--------------------------------------------------------------------------|
A|--------------------------------------------------------------------------|
E|--------------------------------------------------------------------------|

outro solo

E|-13b--13--10^13^10-\-------------------------------------------------------------------------|
B|--------------------------------------13b--13-10---------------------------------------------|
G|-------------------------------------------------13-12-10----12-10----------------------7----|
D|----------------------------------------------------------12-------12\-12---------------7----|
A|----------------------------------------------------------------------------------------5----|
E|---------------------------------------------------------------------------------------------|


Oceń to opracowanie
Kontrybucje:
pawciu
pawciu
anonim