Hells Bells AC/DC

If you want to make a bell tone type sound int he guitar i use the 12th fret of the E string
in a harmoninc and let it ring to substitute for the bell
N.M
||--------||
||--------||
||--------||
||--------||
||--------||
||--(12)--||

Intro/ Chrous

Guitar 1
E|----------------------|-------------------|-------------------|------------------------|
B|----------------------|-------------------|-------------------|------------------------|
G|----9-----7---------5-|-------7-----------|-9------7--------5-|---------7--------------|
D|-------7------7-------|--5---------7------|-----7------7------|---5-----7-----5--5--2--|
A|-0---------------0----|-----0---------0--0|---------------0---|-----0---------3--2--0--|
E|----------------------|-------------------|-------------------|------------------------|repeat

Guitar 2
E|----------------------|-------------------|-------------------|------------------------|
B|----------------------|-------------------|-------------------|------------------------|
G|----------------------|-------------------|-------------------|------------------------|
D|----------------------|-----------------2-|-------------------|--------------5---5--2--|
A|-0--------------------|-----------------0-|-------------------|--------------3---2--0--|
E|----------------------|-------------------|-------------------|------------------------|repeat

Both guitars
|---3----3--3--2-----------------|
|---3----3--3--3-----------------|
|---0----0--0--2-----------------|
|---0----0--0--0-----5---5---2---|
|---2----2--2--------3---2---0---|
|---3----3--3--------------------|

Riff 1 a
Guitar 1
|-----------------------------------|----------------------|
|-----------------------------------|----------------------|
|·------9---7---9--------7---5---7~~|~~-------------------·|
|-------7---7---7--------7---5---7~~|~~-------5---5--------|
|·--0-------------------------------|------0--3---2-------·|
|-----------------------------------|----------------------| x2

Guitar 2
E|----------------------------------|----------------------|
B|----------------------------------|----------------------|
G|----------------------------------|----------------------|
D|------2---0---2--------7---5---7--|---------5---5--------|
A|--0---0---0---0--------5---5---5--|------0--3---2--------|
E|----------------------------------|----------------------| x2


Riff 1 b (main riff)
|-----------------------------------|----------------------|
|-----------------------------------|----------------------|
|·------9---7---9--------7---5---7--|---------------------·|
|-------7---7---7--------5---5---7--|---------5--5---------|
|·--0-------------------------------|------0--3--2--0-----·|
|-----------------------------------|----------------------|

Rythem
|------------------------------------|-----------------------|
|------------------------------------|----------3--3---------|
|·------2-----0---2-------7---5---7--|----------0--2---2----·|
|-------2-----0---2-------7---5---7--|----------0--0---2-----|
|·--0---0-----0---0-------5---5---5--|------0---3--2---0----·|
|------------------------------------|-----------------------|


PRE CHROUS
|----------------------------------------------------------------------
|-------3----3----3----------3---3---3----------3---3---3---1----------
|-------2----0----2----------2---0---2----------2---2---2---0----------
|--0--------------------------------------------------------2----5-----
|-----------------------------------------------------------3----5-----
|----------------------------------------------------------------3----- x 2

guitar 2
|---------------------------------------------------------------------
|---------------------------------------------------------------------
|-------7---7-5---7---------7---7-5--7---------7---7-/-5----5---------
|-------7---7-5---7---------7---7-5--7---------7---7-/-5----5----5----
|--5----5---5-5---5---------5---5-5--5---------5---5--------3----5----
|----------------------------------------------------------------3---- x 2

g1|------------------------------------------------|--2----------|--3--3---|
|------------------------------------------------|--3----------|--3--3---|
|·----------------------------------------------·|--2----2-----|--0--0---|
|---------9---------9---------9---------9--------|-------2-----|--0--0---|
|·---7----7----7----7----7----7----7----7----7--·|-------0-----|--2--2---|
|----0----0----0----0----0----0----0----0----0---|-------------|--3--3---|

g2 1st time | 2nd time
|------------------------------------------------|-------------|---------|
|------------------------------------------------|-------------|---------|
|------------------------------------------------|--7----------|---------|
|----9----9----7----9----9----7---9--9--/--7-----|--7----7-----|--5--5---|
|----7----7----7----7----7----7---7--7-----------|--5----7-----|--5--5---|
|----0----0----0----0----0----0---0--0-----------|-------5-----|--3--3---|

Back to Chorus


Pre-Solo b slowb
e|----------------------------------------5-----------------------------------|
b|--8--7--8--7---7--5---------------------5-7-8--7-----8----------------------|
g|--7--7-------9-7--5-----------------------7-8--7-----8----------------------|
D|---------------------7--5--7------------------------------------------------|
A|---------------------------------------------------------12-----------------|
E|------------------------------------------------------------x---------------|


Solo 1
~~~~~~~~~~ b b |---HB---------|
e|----------------------------------------------------------------------------|
b|--------------------------------------------------8---------8-8-8-8-8-8--8-8|
g|-------------------------------------------7-9-------7--9---9-9-9-9-9-9--9-9|
D|--5-7-7-----4-5-5------0--4-5-7-7--5-7--------------------------------------|
A|----------------------------------------------------------------------------|
E|----------------------------------------------------------------------------|
r ~~~~~~~~~~~~~~~~~~~~~~~~
e|---------------------------------------------------------------------------|
b|------------5-------8------7---7-------8--8------10--10-----13-13-12-13-13-|
g|--7--5------5----9--9------7---7-------9--9------11--11-----14-14-13-14-14-|
D|-------7-7------/----------------------------------------------------------|
A|---------------------------------------------------------------------------|
E|---------------------------------------------------------------------------|
ub ub
e|----------------------------------------12---12-----10-----10---------------|
b|12-13-13-12-13-12-13-13-13-13-13-13-13--13---13--13-15--13-15---------------|
g|13-14-14-13-14-13-14-14-14-14-14-14-14--------------------------------------|
D|----------------------------------------------------------------------------|
A|----------------------------------------------------------------------------|
E|----------------------------------------------------------------------------|
ub r b
e|---10----------------------10---10---------10----10-------------------------|
b|13-15---12-13---12---10--/-10---10---13-10----10-------13--------15-17-19---|
g|-----------------------\-/-----------------------------14----\14------------|
D|-------------------------------------------------------------\--------------|
A|----------------------------------------------------------------------------|
E|----------------------------------------------------------------------------|
b b b b r b b
e|17--------17-----------17-----17----------------------------------------|
b|---17-19-----17-19--17-19--17-19---17---15--17--15----15------------20--|
g|---------------------------------------------------16-----19-21--19-21--|
D|------------------------------------------------------------------------|
A|------------------------------------------------------------------------|
E|------------------------------------------------------------------------|
e|--b------b------17-------------------------------b------b-----17--20--17---b-----|
b|-----------------20-17-----------------------20-22-20-22-------------20-22--|
g|19-21-19-21------------20-19-17----19-17------------------------------------|
D|--------------------------------19-------19---------------------------------|
A|----------------------------------------------------------------------------|
E|----------------------------------------------------------------------------|
b b ~~~~~~
e|-17-17-------20-22--20-21-----17--------------------------------------------|
b|-------20-17---------------------20-17--------------------------------------|
g|---------------------------------------19-21-19-17-----17-------------------|
D|---------------------------------------------------19------------19---------|
A|-------------------------------------------------------------------\--------|
E|--------------------------------------------------------------------\-------|

Solo 2
e|---b------15-----------------------------b-----15-----------------------------b|
b|-15-17------17--15----13------15-----15--17------17--15------13-----15----15|
g|----------------------------------------------------------------------------|
D|----------------------------------------------------------------------------|
A|----------------------------------------------------------------------------|
E|----------------------------------------------------------------------------|
e|---15---------------------------b-----15-------------------------------------|
b|17----17-15---13-------15-----15-17-----17-15------13-----------------------|
g|----------------------------------------------------------------------------|
D|----------------------------------------------------------------------------|
A|----------------------------------------------------------------------------|
E|-------------------------------------------------------17-----17-----17-----|
\ \ \
~~~~~~~~~~~~~~~~~~~ ub ub
e|----------------------------------------------5-------5---\----8---------8--|
b|-------------------------------------------8-10---8--10---\\-----10-8-10--10|
g|--2--0--2------2---------5-7---------5---------------------\----------------|
D|--2-----------------------------------\-------------------------------------|
A|--0-------------------------------------------------------------------------|
E|----------------------------------------------------------------------------|
ub ub b b b ~~~ b b
e|--------5------5---------------17-------------17----------------------------|
b|\----8-10--8--10---\----20-22-----20-17-20-22----17--20-22-----20-22---20-22|
g|-\--------------------------------------------------------------------------|
D|----------------------------------------------------------------------------|
A|----------------------------------------------------------------------------|
E|----------------------------------------------------------------------------|
b b b b b b b b r
e|----------17----------------------------------------------------------------|
b|-20-22------20-17-------------------20----20------20------20------20------20|
g|------------------19-21-19-17-19-21----19-21---19-21---19-21---19-21---19-21|
D|----------------------------------------------------------------------------|
A|----------------------------------------------------------------------------|
E|----------------------------------------------------------------------------|

e|----------------------------------------------|
b|20-----------19--17---------------------------|
g|19-----17----19--17----------------2-------2--|
D|----------19--------------x--------2-------2--|
A|---------------------------\-------0-------0--|
E|----------------------------\----------3------|


Oceń to opracowanie
Kontrybucje:
pawciu
pawciu
anonim