0
0

Big Balls AC/DC

Tekst piosenki i chwyty na gitarę

  • Chwyty na gitarę s314ryt
    1 ulubiony
BIG BALLS (AC/DC)
==================

Intro: (Softly)
--E-------E--Dis---D--C----C--D--Dis---E------E--Dis---D--C-----C--D--Dis---E------E--Dis---D--C--
-------------------------------------------------------------------
-------------------------------------------------------------------
--9------9-8-7-5----5-7-8-9----------------------------------------
--7------7-6-5-3----3-5-6-7------Similarly-------------------------
-------------------------------------------------------------------

(Hard)
--C----D----D-----B--B--B--B--B--------------------------------------------
-------------------------------------------------------------------
---------------4-4-4-4-4.------------------------------------------
--5-/-7---7-\--4-4-4-4-4.------------------------------------------
--3-/-5---5-\--2-2-2-2-2.------------------------------------------
-------------------------------------------------------------------


1st Verse (all verses SPOKEN - as in all great poetry)

E (let ring) C (let ring)
Well I'm upper-upper class high society,
E (let ring) C (let ring)
Gods' gift to ballroom noteriety,
E (let ring) C (let ring)
And my ballrooms always filled - the event is never small,
D (let ring) B B B B B
The social pages say I've got the biggest balls of all.


Chorus
All chords stoccato (i.e jab then rest) until last line.
(Refer below for chord riff details)

E (chord riff) C#m (chord riff)
I've GOT big balls, I've GOT big balls,
They're SUCH big balls, they're DIRTY big balls,
And HE's got big balls, and SHE's got big balls,

BUT CWE'VE CGOT CTHE DBIGDGEST - ABALLS AOF ATHEM BALL.


2nd Verse
EAnd my ballrooms always bouncing, Cand my ballrooms always full,
EAnd everybody comes and comes agaiCn.
EIf your name is one the guest list - Cno one can take you higher,
DEverybody says I've got BgreBat Bballs Bof Bfire.

Chorus

3rd Verse
ESome balls are held for charity, C/Eand some for fancy dress,
EBut when they're held for pleasure - C/Ethey're the balls that I like best.
EMy balls are always bouncing - C/Efrom the left and to the right,
D/F#It's my belief that my big balls should Bbe Bheld BeveBry Bnight.



Chorus
Fade out to chants of "Ball-sucker,Ball-sucker"
(at least that's what the kids said when I was at school)


FINE DETAILS
------------
Basically you can use whatever chord positions you like.
For the unadventurous all barre chords or all open chords will suffice.

Hovever the following are my preferances for recreating the sound of this
subtle and beautiful piece.
In general a biting, trebly sound is desired - so pick viciously and emhasize
the treble strings. The intro should sound more mellow.

The chorus has a chord riff like this (stoccato)
The (D) is an optional passing note.

E E E E (D) cis cis cis cis (D) (repeat)

Played ala:

--E-----E-----E----E---[(D)]-----cis4--------------------------------------
--5----5----5---5-------5--------------------------------------
--4----4----4---4-------6--------------------------------------
--2----2----2---2---0---6--------------------------------------
------------------------4--------------------------------------
------------------------------Similarily-----------------------

Verse
E XX245X
C X3555X
D XX0232
B X2444X
D/F# 2X0232 (optional bass note)
C/E 03555X (optional bass note)

Chorus
E XX245X
C#m X46654
C X3555X
D X5777X
A X0222X
B X2444X


ALTERNATIVELY
-------------
For

Oceń to opracowanie
Kontrybucje:
s314ryt
s314ryt
anonim