0
0

Dirty Deeds Done Dirt Cheap AC/DC

Tekst piosenki i chwyty na gitarę

  • Chwyty na gitarę s314ryt
    3 ulubione
Dirty Deeds Done Dirt Cheap
By Dave (who's last name I accidentally deleted)


E G E A E D5 A
e---------------------------------------------I
b--------------------2--------3---2-----------I
g-----1--------1-----2--1-----2---2-----------I
d-----2---- 5--2-----2--2---------2-----------I
a-----2-----5--2-----0--2---------0-----------I
e-----0-----3--0--------0---------------------I

this is the intro it goes E--GE--AE--DA then the verses goes:
A A B
e-------------------I
b-------------------I
g-------------------I
d----7--7sss9-------I
a----7--7sss9-------I
e----5--5sss7-------I

the sss is a slide so go A-AsB Finally here is the chorus:
A A ? A
e---------------2----------------------------I
b---2-------2---2---2------------------------I
g---2-------2---0---2------------------------I
d---2-------2---0---2-------9-----9---7---9--I
a---0-------0-------0-------7-----7---5---7--I
e---------------------------0-----0-------0--I
Dirty Done Dirt Cheap Dirty Done Dirt
Deeds Deeds

Oceń to opracowanie
Ocena czytelników: Niczego sobie 2 głosy
Kontrybucje:
s314ryt
s314ryt
anonim
  • Madzia
    kika&basia 14 lat temu

    dobra tabulatura