Hard as a rock AC/DC

This is my version of Hard as a Rock. I was sick of
the crap that was on here. I got lazy and didn't
do the solo, but if someone really needs it, tell
me and I will get it for ya. E-mail me if u like it.

-|-2-4-5--4-2-0-2-4-2---4-0---4-2-|-------------------------------------------
-|-0-0-0--0-0-0-0-0-0---0-0---0-0-|-------------------------------------------
-|--------------------------------|-------------------------------------------
-|--------------------------------|-------------------------------------------
-|--------------------------------|-------------------------------------------
-|--------------------------------|-------------------------------------------
Lead Guitar 4X

-|--------------------------------|-------------------------------------------
-|--------------------------------|-------------------------------------------
-|-----4------------4-----------4-|-------------------------------------------
-|-----4------2-----4-----2-----4-|-------------------------------------------
-|-----2------2-----2-----2-----2-|-------------------------------------------
-|------------0-----------0-------|-------------------------------------------
Rhythm Guitar 2X (after lead plays 2X)

-|----------------|-----------------|----------------|----------------|-------
-|----------------|-----------------|----------------|----------------|-------
-|----4--4--4--4--|-2-----4---------|----4--4--4--4--|-2-----4--------|-------
-|-2--4--4--4--4--|-2--2--4---------|-2--4--4--4--4--|-2--2--4--------|-------
-|-2--2--2--2--2--|-0--2--2---------|-2--2--2--2--2--|-0--2--2--------|-------
-|-0--------------|----0------------|-0--------------|----0--------|-------
Both Guitars 7X Both Guitars 1 X Both guitars 3X Both Guitars 1X

-|----------4--5--4--2--4--5--4-|----------------------|-------------|--------
-|----------0--0--0--0--0--0--0-|----------------------|-------------|--------
-|-2-----4----------------------|-2-----4--------------|----2--------|--------
-|-2--2--4----------------------|-2--2--4--------------|-2--2--2-----|--------
-|-0--2--2----------------------|-0--2--2--------------|-2--0--2-----|--------
-|----0-------------------------|----0-----------------|-0-----0-----|--------
Pre-Chorus (Lead) 3X Pre-Chorus (Rhythm) 3X Both Guitars

-|------------------------------------------------------------------------|---
-|------------------------------------------------------------------------|---
-|------------------------------------------------------------------------|---
-|------------------------------------------------------------------------|---
-|------------------------------------------------------------------------|---
-|------------------------------------------------------------------------|---
Chorus (Look back to top) Play it same as top except 2X instead of 4X

-|-------------------------------------------------|--------------------------
-|-------------------------------------------------|--------------------------
-|-2-----------4---9---7---9-7-------2-----------4-|--------------------------
-|-2--2--2--2--4---------------9-----2--2--2--2--4-|--------------------------
-|-0--2--2--2--2---------------------0--2--2--2--2-|--------------------------
-|----0--0--0---------------------------0--0--0----|--------------------------
Lead 1X p

-|-------------------------------------------------|--------------------------
-|-------------------------------------------------|--------------------------
-|-2-----------4---------------------2-----------4-|--------------------------
-|-2--2--2--2--4---------------------2--2--2--2--4-|--------------------------
-|-0--2--2--2--2---------------------0--2--2--2--2-|--------------------------
-|----0--0--0---------------------------0--0--0----|--------------------------
Rhythm 1X

-|----------------|--------------------------------------------------------|--
-|----------------|--------------------------------------------------------|--
-|----------------|--------------------------------------------------------|--
-|----------------|--------------------------------------------------------|--
-|----------------|--------------------------------------------------------|--
-|----------------|--------------------------------------------------------|--
Back to line #3 Repeat the song like this for a while. You'll get it.


Oceń to opracowanie
Kontrybucje:
s314ryt
s314ryt
anonim