0
0

Charlie Charlie Ania Dąbrowska

Tekst piosenki i chwyty na gitarę

  • Chwyty na gitarę Doorootaa
    36 ulubionych
On zmienił mnie mój Charlie Charlie
To zaczęło się latem rok wstecz
Mimo młodych lat już zdążył gwiazdą być
Jak wiesz bardzo dobry miał styl
Taki słodki miał sHtyl

Charlie Charlie
Był mą podróżą dziką uwb olnił mnie
DisRockendrolowym snem i rgisozkoszą był
Po tak namiętnej nocy jEak wierzyć że HodFisszedł?
Pcisokochać cię mój Charlie Charlie
Tak cFiszułam że mocna to rzecz
Ty masz cistaki czar

Ty masz w oczach blask
Tak Fisłatwo mogłeś zdobyć mnie
IH mogłeś zdobyć ją

Charlie Charlie
Był mą podróżą dziką uwolnił mnie
Rockendrolowym snem i rozkoszą był
Po tak namiętnej nocy jak wierzyć że odszedł?
HCharlie Charlie
Na krótką chwilę wyszedł
Pbrzepadł do dziś
DisUkradł mi serce jeśli sgispotkasz się z nim
Powiedz że nie chcę tych pienEiędzy Które zHabFisrał
ŻeE chcę go zapytać o HpoFiswód
I gismusze poznać go
ETylko czy zdołam to HpoFisjąć?
cisCharlie Charlie
Co ty mi robisz kto Fiswie?

solo:
E|-----------7------7-------------------------|
B|-------------9------9-----------------------|
G|-11-9-8-7------6------11-13-6--11-13-6------|
D|--------------------------------------------|
A|--------------------------------------------|
E|--------------------------------------------|

E|-----------7------7-------------------------------------|
B|-------------9------9-----------------------------------|
G|-11-9-8-7------6------11-13-6--11-13-6---11-13-15-16~~--|
D|--------------------------------------------------------|
A|--------------------------------------------------------|
E|--------------------------------------------------------|

Charlie Charlie
Mam puste konto w banku noce i dni
Ukradł mi serce jeśli spotkasz się z nim
Powiedz że nie chcę tych pieniędzy
Nie ja chcę by był

On zmienił...


Oceń to opracowanie
Ocena czytelników: Słaby+ 3 głosy
anonim