Doesn't Remind Me Audioslave

Tekst piosenki

  • Tekst piosenki damballa
    4 ulubione
| / slide up
| \ slide down
| h hammer-on
| p pull-off
| ~ vibrato
| + harmonic
| x Mute note
| b Bend up
| r Release bend
|(t)sb(r) (Tremolo pick) Slow Bend (release)
| t Tremolo Picking


Tuning: EADGBe


Intro/Verse

Chords:

E A E

Strum the E chord like this: down, up, down, up, up, down, up,
And the A chord like this : down, up, down,
And the E chord after the A: up, up, down, up.

NOTE: with the first down strokes from the E chord play only the E (E|-0----0-----0-etc.)
and with the upstrokes don't play that E


Chorus:

Chords: E D A E

or

e|---------------------------------------------------------------------------|
B|---------------------------------------------------------------------------|
G|-------7--7----------------------------------------------------------------|
D|2--2---7--7---7-7---2--2-2-------------------------------------------------|
A|2--2---5--5---7-7---2--2-2-------------------------------------------------|
E|0--0----------5-5---0--0-0-------------------------------------------------|



Verse

Chords:

E A E (Strummed same as Intro/Verse)



Chorus:

Chords: E D A E

or

e|---------------------------------------------------------------------------|
B|---------------------------------------------------------------------------|
G|-------7--7----------------------------------------------------------------|
D|2--2---7--7---7-7---2--2-2-------------------------------------------------|
A|2--2---5--5---7-7---2--2-2-------------------------------------------------|
E|0--0----------5-5---0--0-0-------------------------------------------------|



Bridge

Chords: d C A a G E



Solo

I'm not sure if the delay is on in the whole solo, or only in the part with the
wah wah...

e|---------------------------------------------------------------------------|
B|--------------------------------------------------------12br---------------|
G|-14b-14b-14b-14b-14b-14-12-14-14b-14p12--------------12-12br----------12---|
D|----------------------------------------14-12-14--14---------14-12-14------|
A|---------------------------------------------------------------------------|
E|---------------------------------------------------------------------------|

e|------------------------------12br-----------17sbr-------------------------|
B|-------12br----------------12-12br-/14-15-17-17sbr-17p15----17-------------|
G|-------12br----------12-14-------------------------------16----------------|
D|-14-12------14-12-14-------------------------------------------------------|
A|---------------------------------------------------------------------------|
E|---------------------------------------------------------------------------|

e|-15----------------------------15----------------15------------------------|
B|-------15----15----14----15----------15----14----------14----15----15----15|
G|----12----12----12----12----12----12----12----12----12----12----12----12---|
D|---------------------------------------------------------------------------|
A|---------------------------------------------------------------------------|
E|---------------------------------------------------------------------------|
[ Wah on!
e|-12-15-12--15-15-17b-----15----------15----------15------------------------|
B|-------------------------------15----------15----------15-15tsb\-----------|
G|----------------------12----12----12----12----12----12---------------------|
D|---------------------------------------------------------------------------|
A|---------------------------------------------------------------------------|
E|---------------------------------------------------------------------------|

e|------------------------15-------------------------------15-15-17b-17-15|
B|-17--17-15-17--17-15-17----17-15-17--17-17--17--17-15-17----------------|
G|------------------------------------------------------------------------|
D|------------------------------------------------------------------------|
A|------------------------------------------------------------------------|
E|------------------------------------------------------------------------|

e|-17b-17b-17-15-17-15-17------------------15-----15-15-17b-17-15-|
B|------------------------17-15-17--17--17----17------------------|
G|----------------------------------------------------------------|
D|----------------------------------------------------------------|
A|----------------------------------------------------------------|
E|----------------------------------------------------------------|

(I'm not 100% sure about this part, it's very fast and with the delay on, so
that's pretty confusing to me when tabbing it... it can be that he skips the second 17 15 14
17 15 14, I don't know, but you can always skip it if it's too long, or if you play it very
very fast you can just play it like this =P)
e|---17-15-14--------17-15-14--------15-14-12------------------12-14-15-14-12|
B|-17--------17-15-14--------17-15-14--------15-14-12--12-14-15--------------|
G|---------------------------------------------------14----------------------|
D|---------------------------------------------------------------------------|
A|---------------------------------------------------------------------------|
E|---------------------------------------------------------------------------|
Wah off!]
e|---------------------------------------------------------------------------|
B|-15-14-12------------------------------------------------------------------|
G|---------14-13-12---//t15--//t18-//t19-//t20-//t21-//t22-//t24-------------|
D|---------------------------------------------------------------------------|
A|---------------------------------------------------------------------------|
E|---------------------------------------------------------------------------|


Chorus:

Chords: E D A E

or

e|---------------------------------------------------------------------------|
B|---------------------------------------------------------------------------|
G|-------7--7----------------------------------------------------------------|
D|2--2---7--7---7-7---2--2-2-------------------------------------------------|
A|2--2---5--5---7-7---2--2-2-------------------------------------------------|
E|0--0----------5-5---0--0-0-------------------------------------------------|


Outro

E A E (strummed same as Intro/verse)


Oceń to opracowanie
Kontrybucje:
damballa
damballa
anonim