Revelations (bass) Audioslave

Tekst piosenki

  • Tekst piosenki damballa
Tuning: BEAD
Riff 1
D|---------------------------|
A|-----8-5-------------------| 4X
E|----------------x6666------|
B|33--x------33--------8-----|

Verse
Riff A Variation
D|----------------| D|--------------|
A|55535------5----| 3X A|33337777------| Repeat with Variation 1X
E|----------------| E|--------------| Then Riff A 4X
B|--------333-3---| B|--------------|

Chorus
Riff 2 Riff 3
D|-------------------------| D|---------------|
A|33337777------------7753-| A|5553535--------| Repeat Riff 2 1X Then
E|------------66668888-----| E|---------------| Then Riff 3 4X
B|--------6666-------------| B|---------------|

Repeat Riff 1 2X
Repeat Verse
Repeat Chorus

Guitar Solo
G|---------------------------| D|---------|
D|333377778888--------7753---| A|55535-5--|
A|------------66668888-------| E|---------|
E|---------------------------| B|-----3-3-|

Chorus Variation
G|--------------------------|
D|888877773333555533337753--| Repeat Riff 3 4X
A|--------------------------|
E|--------------------------|

Bridge
G|-------------------------------| D|-----------------------------|
D|-------------------------------| 1X A|-----------------------------| 2X
A|6--------------3---------------| E|6-----6-------3-----3--------|
E|-------6---------------3-------| B|-------6-----6-------3-----3-|

G|------------------| Break D|--------------------------------|
D|----------------5-| A|5555- SEVEN TIMES---55535-5-----|
A|6------6----------| E|--------------------------------|
E|--------6------6--| B|-------------------------3-3----|

Repeat Chorus
(Riff A 2X, Chorus Variation, Then Riff A 1X, Then end with Riff 3 4X)

| / slide up
| \ slide down
| h hammer-on
| p pull-off
| ~ vibrato
| + harmonic
| x Mute note


Oceń to opracowanie
Kontrybucje:
damballa
damballa
anonim