Sound Of A Gun (bass) Audioslave

Tekst piosenki

  • Tekst piosenki damballa
CHORUS

-------------------------|--------0---2---|---------------------|
---2--2--0---2---0---2---|-----0----------|------0---2---0---2--|
-------------------------|----------------|---------------------|
-------------------------|----------------|---------------------|

---------0---2-----|
-----0-------------|
-------------------| repeat X 1
-------------------|



VERSE

----------------------|----------------------|--------------------|
----2---2---2---2--0--|--2--0--2---2---2--0--|--------------------|
----------------------|----------------------|--3---3---3---3--0--|
----------------------|----------------------|--------------------|


----------------------|
---0---0---0---0------| repeat X 2
------------------2---|
----------------------|


----------------------|----------------------|--------------------|
----2---2---2---2--0--|--2--0--2---2---2--0--|--------------------|
----------------------|----------------------|--3-----------------|
----------------------|----------------------|--------------------|


----------------------|
---0------------------|
------------0---------|
----------------------|



CHORUS

-------------

VERSE

-------------

CHORUS

-------------


SOLO SECTION

----------------------|----------------------|----------------------|
---2-----2-2--2-2-----|----------------------|----------------------|
------------------2---|------------------2---|------------------2---|
----------------------|---2-----2-2--2-2-----|---3-----3-3--3-3-----|


----------------------|
----------------------| repeat X 1
---0----0-0--0-0--2---|
----------------------|



BRIDGE

----------------------|----------------------|---0-----0-0--0-0-----|
---2-----2-2--2-2-----|---4-----4-4--4-4-----|----------------------|
------------------2---|------------------2---|------------------2---|
----------------------|----------------------|----------------------|


---2-----2-2--2-2-4---|----------------------|----------------------|
----------------------|---2------------2-----|---4------------4-----|
----------------------|------------------2---|------------------2---|
----------------------|----------------------|----------------------|


---0------------0-----|----------------------|----------------------|
----------------------|----------------------|---2-----2-2--2-2-----|
------------------2---|---0------------------|------------------2---|
----------------------|----------------------|----------------------|


----------------------|----------------------|----------------------|
----------------------|---2-----2-2--2-2-----|----------------------|
------------------2---|------------------2---|------------------2---|
---2-----2-2--2-2-----|----------------------|---2-----2-2--2-2-----|


----------------------|----------------------|----------------------|
---2-----2-2--2-2-----|----------------------|---2-2-2-2-2-2-2-2----|
------------------2---|------------------2---|----------------------|
----------------------|---2-----2-2--2-2-----|----------------------|


----------------------|---0-0-0-0-0-0-0------|
---4-4-4-4-4-4-4-4----|----------------------|
----------------------|-----------------0----|
----------------------|----------------------|



CHORUS (rest for three measures)

4th measure of CHORUS

--------------0---2---|
----------------------|
----------------------|
----------------------|


------------------------------

CHORUS X 2

------------------------------


Oceń to opracowanie
Kontrybucje:
damballa
damballa
anonim