Popraw Opracowanie
Transponuj
0

Dirty little secret Avril Lavigne

Tekst piosenki i chwyty na gitarę

  • Chwyty na gitarę szatynaa
E|-------------------------------------|
B|-------------------------------------|
G|-------------------------------------|
D|-----8----8--6-6p56p5----x4-6p56p5---|
A|-----------------------6-----------6-|
E|--6-----6----------------------------|

E|----------------------|
B|----------------------|
G|----------------------|
D|----10---5---8--------|
A|8x8-8-x8-5x8-6x8------|
E|6---------------------|

E|------------------------------|
B|------------------------------|
G|-5---------8---10-------------|
D|-5x6--5----8x6-10x6-----------|
A|-3----5x6--6---8--------------|
E|------3-----------------------|

E|----------------------------|
B|----------------------------|
G|----8----------8------------|
D|-8--8--5--3-x2-8(hold)------|
A|-8--6--5--3----6------------|
E|-6-----3--1-----------------|

E|----------------------------|
B|----------------------------|
G|----8-----------------------|
D|-8--8--5--3-----------------|
A|-8--6--5--3-----------------|
E|-6-----3--1-----------------|

E|-------|
B|-------|
G|----8--|
D|-5--8--|
A|-5--6--|
E|-3-----|

E|--------|
B|--------|
G|--------|
D|-8--6---|
A|-8--6---|
E|-6--4---|

E|----------------------------------|
B|----------------------------------|
G|----------888888------------------|
D|-8888888--888888--5555555--333333-|
A|-8888888--666666--5555555--333333-|
E|-6666666----------3333333--111111-|

E|----------------------------------------------------------------|
B|----------------------------------------------------------------|
G|--88888888/10-10-10-10-10-10-10-10/12-12-12-12-12-12-12-12--13~-|
D|--xxxxxxxxxxxxxxxxxxxxxxxxxxxxxxxxxxxxxxxxxxxxxxxxxxxxxxxx--x~--|
A|--66666666/-8--8--8--8--8--8--8--8/10-10-10-10-10-10-10-10--11~-|
E|----------------------------------------------------------------|

E|--------------------------|
B|--------------------------|
G|--------------------------|
D|-----8----8--6-6p5h6p5----|
A|-----------------------8v-|
E|--6-----6-----------------|

E|------------------------------|
B|--11-11-9-9p89p8------9p89p8--|
G|-----------------8----------8-|
D|-8--8--------------x3---------|
A|------------------------------|
E|------------------------------|

E|----------------------|
B|----------------------|
G|----------------------|
D|----10---5---8--------|
A|8x8-8-x8-5x8-6x8------|
E|6---------------------|

E|------------------------------|
B|-4----------------------------|
G|-5---------8---10-------------|
D|-5x6--5----8x6-10x6-----------|
A|-3----5x6--6---8--------------|
E|------3-----------------------|

E|----------------------------|
B|----------------------------|
G|----8----------8------------|
D|-8--8--5--3-x2-8(hold)------|
A|-8--6--5--3----6------------|
E|-6-----3--1-----------------|

E|-----------------------------------------------|
B|-11----10----11----16----11----10----11----8---|
G|-10-x8-10-x8-10-x8-15-x8-10-x8-10-x8-10-x8-8-x8|
D|-----------------------------------------------|
A|-----------------------------------------------|
E|-----------------------------------------------|

E|------------------------------------------------13--13-11-11p1011p10-------13-13-11-11p1011p10-----|
B|---11--11-9-9p89p8----11--11-9-9p8--------13b-11--11----------------11v--11-11----------------11\\--|
G|------------------8----------------10h12-----------------------------------------------------------|
D|-8---8--------------8---8--------------------------------------------------------------------------|
A|---------------------------------------------------------------------------------------------------|
E|---------------------------------------------------------------------------------------------------|

E|----------------------|
B|----------------------|
G|----------------------|
D|-------8----5----10---|x2
A|--8-x8-6-x8-5-x8-8-x8-|
E|--6-------------------|

E|--6-5-----6-5-----|
B|------6~------6~--|
G|------------------|
D|------------------|
A|------------------|
E|------------------|

E|----------------------------------------------------------------|
B|----------------------------------------------------------------|
G|--88888888/10-10-10-10-10-10-10-10/12-12-12-12-12-12-12-12--13~-|
D|--xxxxxxxxxxxxxxxxxxxxxxxxxxxxxxxxxxxxxxxxxxxxxxxxxxxxxxxx--x~--|
A|--66666666/-8--8--8--8--8--8--8--8/10-10-10-10-10-10-10-10--11~-|
E|----------------------------------------------------------------|

E|---------------------------------------|
B|--11-11-9-9p89p8----11-11-9-9p89p8-----|
G|-----------------8-----------------10v-|
D|-8--8--------------8--8----------------|
A|---------------------------------------|
E|---------------------------------------|
Oceń to opracowanie

Kontrybucje
szatynaa

Współpraca

W wiki-śpiewniku Wywroty możesz poprawiać istniejące opracowania i zdobywać punkty karmy. Zapoznaj się z zasadami kontrybucji.
anonim