0
0

Give you what you like Avril Lavigne

Tekst piosenki i chwyty na gitarę

  • Chwyty na gitarę floem
    2 ulubione

E|-----------------------------------------|
B|-----------------------------------------|
G|---5--5------5--5-------5--5------5--5---|
D|-3--3------------------------------------|
A|--------------------------------4--6-----|
E|-----------4--4-------6--6---------------| (2x)

Please, wrap your drunken arms around me
And I'll let you call me yours tonight
'Cuz slightly broken is just what I need
And if you give me what I want
Then I'll give you what you like

Please, tell me I'm your one and only
Or lie, and say at least tonight

I've got a brand new cure for lonely
And if you give me what I want
Then I'll give you what you like

b When you turn off the lightCis
I get stars in my eyesGis  
Is this love?
MaDisybe someday    b    
So, don't turn on the ligCishts
I'll give you what you like

E|-----------------------------------------|
B|-----------------------------------------|
G|---5--5------5--5-------5--5------5--5---|
D|-3--3------------------------------------|
A|--------------------------------4--6-----|
E|-----------4--4-------6--6---------------|

Emotions aren't that hard to borrow
When love's the word you've never learned
And in a room of empty bottles
If you don't give me what I want
Then you'll get what you deserve
b When you turn off the lightCis
I get stars in my eyesGis  
Is this love?
MaDisybe someday    b    
I've got the scene in my Cishead
I'm not sure how it eGisnds
Is it love?
MDisaybe one day
So, don't turn on the ligCishts
I'll give you what you like

E|-----------------------------------------|
B|-----------------------------------------|
G|---5--5------5--5-------5--5------5--5---|
D|-3--3------------------------------------|
A|--------------------------------4--6-----|
E|-----------4--4-------6--6---------------|

I'll give you one last chance to hold me
If you give me one last cigarette
By now, it's early in the morning
Now that I gave you what you want
All I want is to forget

b When you turn off the lightCis
I get stars in my eyesGis  
Is this love?
MaDisybe someday    b    
I've got the scene in my Cishead
I'm not sure how it eGisnds
Is it love?
MDisaybe one day
So, don't turn on the ligCishts
I'll give you what you like

E|-----------------------------------------|
B|-----------------------------------------|
G|---5--5------5--5-------5--5------5--5---|
D|-3--3------------------------------------|
A|--------------------------------4--6-----|
E|-----------4--4-------6--6---------------| 2x

Oceń to opracowanie
Ocena czytelników: Słaby 1 głos
Kontrybucje:
floem
floem
anonim