Styrana HappySad

Korektę nadesłał Bartosz Sułowski 1 tydzień temu
Trudność: Początkujący
Strojenie: E A D G B E

Intro: x6 E||-------------------------------------------------------15--|| A||---13------13-------13------13-------13--12----------------|| D||-------14-------12------12-------14------------14----------|| G||-----------------------------------------------------------|| H||-----------------------------------------------------------|| E||-----------------------------------------------------------|| Dalej: Znowu wracasz... a G C E a G C E Znowu Cię... C G C E Znów nie... a G C E a G C E Tępo patrzysz... a G C E a G C E A Ja... a Ni z oczu Twych... E a F E Zaciśniętych... a G C F Możesz... E a F E Następnie: a G C F x4 Znowu budzisz... a G C E a G C E Znowu Cię widzę... C G C E Znów nie pytam... a G C E a G C E Tępo patrzysz... a G C E a G C E A Ja znikąd... a Ni z oczu Twych... E a F E Zaciśniętych... a G C F Możesz milczeć... E a F E Następnie: a G C F x4 x6 E||-------------------------------------------------------15--|| A||---13------13-------13------13-------13--12----------------|| D||-------14-------12------12-------14------------14----------|| G||-----------------------------------------------------------|| H||-----------------------------------------------------------|| E||-----------------------------------------------------------|| Znikąd się więcej... a Ni z oczu Twych... E a F E zaciśniętych do krwi... a G C F Możesz milczeć... E a F E Nic mi więcej... a G C F Niewzruszone ramię... E a F E Przestępujące ciało... a G C F Z nogi na nogę... E a F E Możesz milczeć sobie... a G C F x3 I tak wiemy oboje... E a F E a G C F x4 a a a
Intro: x6 E||-------------------------------------------------------15--|| A||---13------13-------13------13-------13--12----------------|| D||-------14-------12------12-------14------------12----------|| G||-----------------------------------------------------------|| H||-----------------------------------------------------------|| E||-----------------------------------------------------------|| Dalej: Znowu wracasz... a G C E a G C E Znowu Cię... C G C E Znów nie... a G C E a G C E Tępo patrzysz... a G C E a G C E A Ja... a Ni z oczu Twych... E a F E Zaciśniętych... a G C F Możesz... E a F E Następnie: a G C F x4 Znowu budzisz... a G C E a G C E Znowu Cię widzę... C G C E Znów nie pytam... a G C E a G C E Tępo patrzysz... a G C E a G C E A Ja znikąd... a Ni z oczu Twych... E a F E Zaciśniętych... a G C F Możesz milczeć... E a F E Następnie: a G C F x4 x6 E||-------------------------------------------------------15--|| A||---13------13-------13------13-------13--12----------------|| D||-------14-------12------12-------14------------14----------|| G||-----------------------------------------------------------|| H||-----------------------------------------------------------|| E||-----------------------------------------------------------|| Znikąd się więcej... a Ni z oczu Twych... E a F E zaciśniętych do krwi... a G C F Możesz milczeć... E a F E Nic mi więcej... a G C F Niewzruszone ramię... E a F E Przestępujące ciało... a G C F Z nogi na nogę... E a F E Możesz milczeć sobie... a G C F x3 I tak wiemy oboje... E a F E a G C F x4 a a a


                      
Intro:

x6
 E||-------------------------------------------------------15--||
A||---13------13-------13------13-------13--12----------------||
D||-------14-------12------12-------14------------12----------||
G||-----------------------------------------------------------||
H||-----------------------------------------------------------||
E||-----------------------------------------------------------||

	Dalej:


	  Znowu wracasz... a G C E a G C E

	  Znowu Cię... C G C E

	  Znów nie... a G C E a G C E

	  Tępo patrzysz... a G C E a G C E

	  A Ja... a

	  Ni z oczu Twych... E a F E

	  Zaciśniętych... a G C F

	  Możesz... E a F E



	Następnie: a G C F x4


	  Znowu budzisz... a G C E a G C E

	  Znowu Cię widzę... C G C E

	  Znów nie pytam... a G C E a G C E

	  Tępo patrzysz... a G C E a G C E

	  A Ja znikąd... a

	  Ni z oczu Twych... E a F E

	  Zaciśniętych... a G C F

	  Możesz milczeć... E a F E


	Następnie: a G C F x4


x6
 E||-------------------------------------------------------15--||
A||---13------13-------13------13-------13--12----------------||
D||-------14-------12------12-------14------------14----------||
G||-----------------------------------------------------------||
H||-----------------------------------------------------------||
E||-----------------------------------------------------------||



	  Znikąd się więcej... a

	  Ni z oczu Twych... E a F E

	  zaciśniętych do krwi... a G C F

	  Możesz milczeć... E a F E

	  Nic mi więcej... a G C F

	  Niewzruszone ramię... E a F E

	  Przestępujące ciało... a G C F

	  Z nogi na nogę... E a F E

	  Możesz milczeć sobie... a G C F x3




	  I tak wiemy oboje... E a F E

	                               a G C F x4

	                               a a a
Am,G,C,E,F
	Intro:

x6
 E||-------------------------------------------------------15--||
A||---13------13-------13------13-------13--12----------------||
D||-------14-------12------12-------14------------14----------||
G||-----------------------------------------------------------||
H||-----------------------------------------------------------||
E||-----------------------------------------------------------||

	Dalej:


	  Znowu wracasz... a G C E a G C E

	  Znowu Cię... C G C E

	  Znów nie... a G C E a G C E

	  Tępo patrzysz... a G C E a G C E

	  A Ja... a

	  Ni z oczu Twych... E a F E

	  Zaciśniętych... a G C F

	  Możesz... E a F E



	Następnie: a G C F x4


	  Znowu budzisz... a G C E a G C E

	  Znowu Cię widzę... C G C E

	  Znów nie pytam... a G C E a G C E

	  Tępo patrzysz... a G C E a G C E

	  A Ja znikąd... a

	  Ni z oczu Twych... E a F E

	  Zaciśniętych... a G C F

	  Możesz milczeć... E a F E


	Następnie: a G C F x4


x6
 E||-------------------------------------------------------15--||
A||---13------13-------13------13-------13--12----------------||
D||-------14-------12------12-------14------------14----------||
G||-----------------------------------------------------------||
H||-----------------------------------------------------------||
E||-----------------------------------------------------------||



	  Znikąd się więcej... a

	  Ni z oczu Twych... E a F E

	  zaciśniętych do krwi... a G C F

	  Możesz milczeć... E a F E

	  Nic mi więcej... a G C F

	  Niewzruszone ramię... E a F E

	  Przestępujące ciało... a G C F

	  Z nogi na nogę... E a F E

	  Możesz milczeć sobie... a G C F x3




	  I tak wiemy oboje... E a F E

	                               a G C F x4

	                               a a a

Am,G,C,E,F
Wakacyjny Konkurs Śpiewnikowy
Wakacyjny Konkurs Śpiewnikowy

Postęp akceptacji +0 -0

Typ decyzji: Korekty
Status: Zatwierdzona
Wartość: 1 punkt karmy

Głosy i komentarze

anonim

Historia Zmian

# Autor Data
1 Jack37 7 lat temu
2 Bartosz Sułowski 1 tydzień temu