0
0

Sound of silence Disturbed

Tekst piosenki i tabulatura

  • Tabulatura Początkujący Tonacja G
    3 ulubione

Hello darkness, my old friend, I've come to talk with you again
e|------------------------------------------------------------------|
B|------------------------------------------------------------------|
G|------------------------------------------------------------------|
D|------------------------------------------------------------------|
A|-------0--0------4---4---2------------------------------2---0--0--|
E|--2-2---------------------------4----4----4---4----4--------------|

Because a vision softly-y creeping, Left it's seeds while I wa-as sleeping
e|-----------------------------------------------------------------------------|
B|-----------------------------------------------------------------------------|
G|-----------------------------------------------------------------------------|
D|------------------2---2--4--4---2--------------------------2--2-4--4---2-----|
A|--0--0---0-4--4-----------------------0----0----4-----4----------------------|
E|-----------------------------------------------------------------------------|

And the vision that was planted in my brain
e|---------------------------------------------|
B|---------------------------------------------|
G|---------------------1---2---2---1-----------|
D|---------4--4---4-------------------4---2----|
A|--0--0---------------------------------------|
E|---------------------------------------------|

still remains within the sound of silence
e|--------------------------------------------|
B|--------------------------------------------|
G|--------------------------------------------|
D|--4-----2------------------2----------------|
A|------------4--0---0---0------------0-------|
E|--------------------------------4-------2---|

In restless dreams I walked a-lone, Narrow streets of cobblestone
e|--------------------------------------------------------------------|
B|--------------------------------------------------------------------|
G|--------------------------------------------------------------------|
D|--------------------------------------------------------------------|
A|-------------0------0--2----0--2-----------------------2------0-----|
E|--2--2---2---------------------------4--4---4--------4---4----------|

'Neath the halo of a-aa street lamp, I turned my collar to the co-old and damp
e|-----------------------------------------------------------------------------------|
B|-----------------------------------------------------------------------------------|
G|-----------------------------------------------------------------------------------|
D|------------------2-2--4--4------2--------2------0----------------4---2------2-----|
A|--0-----0--4---4-----------------------0------------4--2---0---0---------4---------|
E|-----------------------------------------------------------------------------------|

When my eyes were stabbed, by the flash of a neon light
e|----------------------------------------------------------|
B|----------------------------------------------------------|
G|----------------------------1---1—-2-----2--2-1-----------|
D|----------4----4----4---------------------------4--2------|
A|--0--0----------------------------------------------------|
E|----------------------------------------------------------|

That split the night, and touched the sound of silence
e|----------------------------------------------------------|
B|----------------------------------------------------------|
G|----------------------------------------------------------|
D|-------4----2----------------------------2----------------|
A|-0--------------4------0---0--------0-----------0---------|
E|----------------------------------------------4-----2-----|

And in the naked light I saw, Ten thousand people, maybe more
e|----------------------------------------------------------------|
B|----------------------------------------------------0-----------|
G|------------2--2---4----2--4---1----1---1---1--1--------1---2---|
D|-4---4--4-------------------------------------------------------|
A|----------------------------------------------------------------|
E|----------------------------------------------------------------|

People talking withou-out speaking, People hearing without-out listening
e|----------------0---0---2--2----0-------------------0---0---2---2----0-----|
B|--------2---2-------------------------------2---2--------------------------|
G|-2--2--------------------------------2---2---------------------------------|
D|---------------------------------------------------------------------------|
A|---------------------------------------------------------------------------|
E|---------------------------------------------------------------------------|

People writing songs, that voices never share,
e|------------0---2------4-5--5--5---4--2--0-------|
B|--------2----------------------------------------|
G|--2--2-------------------------------------------|
D|-------------------------------------------------|
A|-------------------------------------------------|
E|-------------------------------------------------|

And no one dare, Disturb the sound of silence
e|-----2--0---------------------0-----------------|
B|------------2-----------------------------------|
G|--2---------------2--2----2---------1--2--------|
D|------------------------------------------4-----|
A|------------------------------------------------|
E|------------------------------------------------|

"Fools" said I, "you do not know, Silence like a cancer grows
e|------------------------------------------------------------------|
B|--------------------------------------------------0---------------|
G|--------------2---2---4--2---4-----1--1----1----1----1---2--------|
D|----4---4---------------------------------------------------------|
A|------------------------------------------------------------------|
E|------------------------------------------------------------------|

Hear my words that I mi-ight teach you; take my arms that I might reach you"
e|--------------------0--0--2----2-----0----5----4--2----0-------0--2----2----0------|
B|---------2-----2--------------------------------------------2----------------------|
G|--2--2-----------------------------------------------------------------------------|
D|-----------------------------------------------------------------------------------|
A|-----------------------------------------------------------------------------------|
E|-----------------------------------------------------------------------------------|

But my words li-ike silent raindrops fell, And echoed in the wells of silence
e|--------2-----2--4---5--5---4---2-----0-----------------------0-----------------|
B|--------------------------------------------------------------------------------|
G|-2---2--------------------------------------2----2--2--2---2--------1--2--------|
D|--------------------------------------------------------------------------4-----|
A|--------------------------------------------------------------------------------|
E|--------------------------------------------------------------------------------|

And the people bowed and prayed, to the neon God they made
e|--2---0----------------------------0--0---0-0--0---2----2-----|
B|----------2---------------------------------------------------|
G|-------------2---4-----2---4----------------------------------|
D|--------------------------------------------------------------|
A|--------------------------------------------------------------|
E|--------------------------------------------------------------|

And the sign flashed ou-out it's warning, and the words that it wa-as forming
e|----------------------0--0---2----2--0-----5---4---2-----0-------0--2---2--0----|
B|---------2----2-----------------------------------------------2-----------------|
G|--2--2--------------------------------------------------------------------------|
D|--------------------------------------------------------------------------------|
A|--------------------------------------------------------------------------------|
E|--------------------------------------------------------------------------------|

And the sign said, "The words of the prophets, are written on the subway walls
e|--------------0------0---2-----2---2--2---2-----4----5-5—---5--5---4--2---0------|
B|---------2-----------------------------------------------------------------------|
G|--2--2---------------------------------------------------------------------------|
D|---------------------------------------------------------------------------------|
A|---------------------------------------------------------------------------------|
E|---------------------------------------------------------------------------------|

And tenement halls", and whispered in the sound of silence
e|-----2---0---------------------------------0------------------|
B|--------------2-----------------------------------------------|
G|--2-------------------2---2---2------2--2--------1--2---------|
D|-------------------------------------------------------4------|
A|--------------------------------------------------------------|
E|--------------------------------------------------------------|

źródło: https://tabs.ultimate-guitar.com/tab/disturbed/the-sound-of-silence-tabs-1814767

Oceń to opracowanie
Ocena czytelników: Dobry+ 3 głosy
Kontrybucje:
Nostradamus
Nostradamus
anonim