Popraw Opracowanie Usuń
Transponuj
0

A Jednak Czegoś Żal Dżem

Chwyty na gitarę
  • Tekst utworu tomazino
    2 ulubione
  • Chwyty na gitarę Slocho
    19 ulubionych
Intro:
e---------------------------------------------------------------|
H---------------------------------------------------------------|
G---------12b14r12--10--12-----12p10----------------------------|
D----10----------------------------------------------12--12-~~~-|
A---------------------------------------------------------------|
E---------------------------------------------------------------|

e---------------------------------------------------------------|
H---------------------------------------------13----------------|
G--------12b14r12--12--10~~~---10--12--10-------------12b14~~~--|
D---10----------------------------------------------------------|
A---------------------------------------------------------------|
E---------------------------------------------------------------|

e-------------------------|------------10------------------------------------|
H-------------------------|--10--13------------------------------------------|
G---14r12--10------10~~~~-|-----------------12--12--10----------10h12/14/12--|
D--------------12---------|-----------------------------12~~~~---------------|
A-------------------------|--------------------------------------------------|
E-------------------------|--------------------------------------------------|

e-------------------------------------------------|--------------------------|
H-------------------------------------------------|--------------12/15~~~~~~~|
G---10---------------10--12b14r12--10--12--12~~~~-|--10----------------------|
D-------12--10~~~~--------------------------------|------12--10--------------|
A-------------------------------------------------|--------------------------|
E-------------------------------------------------|--------------------------|


Pomyślcie chłopcy, co nam zostało                                  FGd
Świadkami byliśmy jak padło świata pół                           FGd
Pamiętać, zapomnieć, śmiać się czy grać?                        FGBa
A jednak czegoś nam żal, czegoś nam żal                        FGd FGd FGD
czegoś żal

Znów popłynęły nasze wspomnienia
Gdzieś tam po czwartej pustej butelce
Coraz to głębiej, głębiej do dna
Śmiać się czy płakać, śmiać się czy grać
Śmiać się czy grać, śmiać się czy grać

Dla nas przecież ten nieznaczący nic
Szary sen i kolorowe
wspomnienia zwyczajne tak, tak jak Bóg nam dał
Dla nas przecież te nieznaczące nic
Szare są i kolorowe...

Czasem tak dziwnie gdy patrzysz na mnie
I wtedy ja po prostu wiem
Ty chciałabyś by było jak dawniej
Bo czegoś nam, czegoś nam tu brak
czegoś nam tu brak, czegoś nam tu brak
czegoś brak, czegoś brak

ty nie płacz, tak... tak jak dawniej...
dlaczego tak...


Dla nas przecież tak....
e---------------0-----------------------0---------|
H-----------3-------3--------------3-------3------|
G-------2--------------2--------2------------2----|
D----0-----------------------0--------------------|
A-------------------------------------------------|
E-------------------------------------------------|

------------0---------------------0----------|
--------3-------3--------------3------3------|
------2------------2--------2-------------2--|
---3----------------------3------------------|
---------------------------------------------|
---------------------------------------------|

e-------------0---------------------0------------|
H---------3------3--------------3------3---------|
G------0------------2---------0-----------2------|
D---2----------------------2---------------------|
A------------------------------------------------|
E------------------------------------------------|

----------------------------------------------|
-------------3-------------------3------------|
---------0-------0-------------0----0---------|
-------0------------0--------0--------0-------|
----3-------------------3--2------------------|
----------------------------------------------|

Solo:
e-----------------------------------------------------------------|
H-15--18--15~~~~~~~-17b19--15------17--18--17--15--17--15---------|
G----------------------------------------------------------15~~~~-|
D-----------------------------------------------------------------|
A-----------------------------------------------------------------|
E-----------------------------------------------------------------|

-----------------------------|
-----------------------------|
-----------------------------|
---12/14~~12~~~10--10/14~~~~-|
-----------------------------|
-----------------------------|

Oceń to opracowanie
Ocena czytelników: Doskonały 2 głosy

26 271 wyświetleń
Autor opracowania
Slocho
  • Teledysk

Współpraca

W nowym śpiewniku możesz poprawiać istniejące opracowania i zdobywać punkty Karmy. Zapoznaj się z zasadami kontrybucji.
anonim