Popraw Opracowanie
Transponuj
0

List do M. Dżem

Tekst piosenki i chwyty na gitarę

Solówka:
E --------------------------------------------------------------------------------------------------
A --5/7------------------------------------7------------------------------------------------------
D --------7--------------------------5/7------ 7--------------------------------------------------
G -----------4--5--4/2/4--5—4---------------------4--5--5--4--5--7--5--4--5--2--2--2--2--
B --------------------------------------------------------------------------------------------------
E --------------------------------------------------------------------------------------------------


E -------------------------------------------------------------------------------------------------
A --------------------------------------------------5/7------------------------------------------
D --------------------------------------------------------------7-------------------5-------
G --7-----7--7--5--7--5--4--5--7--5--4--2-----------------5-----------7---7---5---4---------------
B -----8------------------------------------------------------------------------------------8---
E -------------------------------------------------------------------------------------------------

/ - oznacza slide po strunach
_ - oznacza podciągnięcie o pół tonu
Tekst piosenki i chwyty:

Mamo piszę do Ciebie wiersz,      a G F Dsus2
Może ostatni, na pewno pierwszy
Jest głęboka, ciemna noc,
Siedzę w łóżku a obok śpi ona
I tak spokojnie oddycha
Dobiega mnie jakaś muzyka
Nie, to tylko w mej głowie szum
Siedzę i tonę i tonę we łzach,
Bo jest mi smutno, bo jestem sam
Dławi mnie strach

ref.: Samotność to taka straszna trwoga dF E
Ogarnia mnie, przenika mnie   aF E
Wiesz mamo, wyobraziłem sobie, że GF E
Że nie ma Boga, nie ma nie! d G

Spokojny jest tylko mój dom,
Gdzie Ty jesteś a mnie tam nie ma
Gdzie nie wrócę już chyba, chyba nie
Mamo bardzo Cię kocham, kocham Cię!
Myślałem, że Ty skrzywdziłaś mnie,
A to ja skrzywdziłem Ciebie
Szkoda, że tak późno pojąłem to
Tak późno to, to zrozumiałem
Zrozumiałem to

ref.: Samotność to taka straszna trwoga
Ogarnia mnie, przenika mnie
Wiesz mamo, wyobraziłem sobie, że
Że nie ma Boga, nie ma nie! (x2)


Oceń to opracowanie
Ocena czytelników: Doskonały 7 głosów

Kontrybucje
Malinowa...
Pan Wywrotek
  • Teledysk

Wakacyjny Konkurs Śpiewnikowy

Pula nagród w konkursie ponad 10.000 zł!
Przysyłaj opracowania piosenek i zdobądź bony na zakupy w sklepie muzycznym.
Zapoznaj się z regulaminem konkursu.
anonim