0
0

Wehikuł czasu Dżem

  • Chwyty na gitarę Średni Tonacja A
    4982 ulubione
  • Tekst piosenki pw7
    4 ulubione
A E fis D
A E D A
A E fis D
A E D A
A E fis D
A E D A

A Pamiętam Edobrze fisideał Dswój
A MarzeEniami Dżyłem jak Akról
A Siódma Erano, fisto dla mnie Dnoc
PraAcować nie Echciałem, Dwłóczyłem Asię
A Za to Edo puszki zafismykano Dmnie
AZa to Ezwykle zaDmykano Amnie
A Po knajpach Egrywałem za fispiwko i Dchleb
ANa szyciu Ebluesa tak Dmijał mi Adzień

Ref:
E Tylko fisnocą Ddo klubu APuls
Jam Esession do fisrana, tam Dkrólował Ablues
To Ejuż mifisnęło, ten Dklimat, ten Aluz
EWspaniali fisludzie Dnie powrócą
DNie powrócą już

A E fis D
A E D A

A Lecz we mnie Ezostało fiscoś z tamtych Dlat
Mój Amały inEtymny Dmuzyczny Aświat
AGdy tak wspoEminam ten fisminiony Dczas
Wiem Ajedno, że Eto nie Dposzło w Alas
ADużo bym Edał, by fisprzeżyć to Dznów
AWehikuł Eczasu Dto byłby Acud
AMam jeszcze Ewiarę, odfismieni się Dlos
Znów Akwiatek do Elufy Dwetknie im Aktoś

Ref:
E Tylko fisnocą Ddo klubu APuls
Jam Esession do fisrana, tam Dkrólował Ablues
To Ejuż mifisnęło, te Dczasy ten Aluz
EWspaniali fisludzie Dnie powrócą
DNie powrócą już

A h A h A h A D
A h A h A h A D
A h A h A h A D
A h A h A h A D
A h A h A h A D
A h A h A h A D
A h A h A h A D
A h A h A h A D

A E fis D
A E D A
A E fis D
A E D A

Ref:
E Tylko fisnocą Ddo klubu APuls
Jam Esession do fisrana, tam Dkrólował Ablues
To Ejuż mifisnęło, te Dczasy ten Aluz

EWspaniali fisludzie Dnie powrócą
DNie powrócą już

A E fis D
A E D A
A E fis D
A E D A / D A / D A

-||------------------------------------------------------||
-||------------------------------------------------------||
-||--------------------------------------2----2-4-2------||
-||--2----2------2--------------------0--0----0-0-0-4-2--||
-||--0----0-3/4---0-2--2-----------0---------------------||
-||-----------------0--0-3/4-0--2------------------------||

-||------------------------------------------------------||
-||------------------------------------------------------||
-||------------------------------4--2--------------------||
-||--2----2------2---------------0--0--4--2----2-0/2-0---||
-||--0----0-3/4---0-2--2---------------0--0----0--0--0---||
-||-----------------0--0--3/4-0--------------------------||

Oceń to opracowanie
Ocena czytelników: Niczego sobie 947 głosów
anonim
Usunięto 4 komentarze
Wszystkie komentarze