Czerwony jak cegła Dżem

....................................................1_______|:.2_________________|
e1|---:|--------------------------------------------|------------|:------------------12^--.-----|
b2|-- :|--------------------------------------------|------------|:------------------------.|
g3|---:|-3\4-4-4-3\4-4-4--3\4-4-4-4-3-2-.|-------7h9|:------7--8--7----------.|
d4|---:|-0----0-0-0----0-0-0----0-0-0-0-0--|-8h9------|:-7h8-------------------.|
a5|---:|--------------------------------------------|------------|:-------------------.----.|
e6|---:|--------------------------------------------|------------|:-------------------..----|

To 2 razy. Zauważcie, że tam jest repetycja :| i |:

Partia rytmiczna:

gdy pierwszy takt grany dwudźwiękami się skończy to mamy takie coś

a5|---2--2--4--4-|-2--2--4--4-|
e6|---0--0--0--0-|-0--0--0--0-|

Oceń to opracowanie
Ocena czytelników: Słaby 17 głosów
Kontrybucje:
gitarzysta22
gitarzysta22

Dodaj własne wykonanie

Umiesz zagrać tą piosenkę? Nagraj swoje wykonanie i pokaż innym jak grasz!
anonim