Popraw Opracowanie Usuń
Transponuj
0

Dzień w którym pękło niebo Dżem

Chwyty na gitarę
Powiedział Pan, powiedział Pan			/c g
Daje wam ogień					/C g
Podajcie sobie ręce i żyjcie w zgodzie		/C g
Żyjcie w zgodzie z ptakami				/C g
Niech płoną serca					/f9 d
I oczy Wasze niech nigdy nie znają łez		/f9 d
Nie znają łez						/C g

Odszedł a ciało swe pogodził z ptakiem
I wiecznym cierpieniem
I była miłość
I była zgoda
Każdy był wolny
Wolny był każdy ptak;  Wolny był każdy ptak

Pewnego dnia, pewnego dnia pękło niebo
I lunął straszny deszcz
Wtedy krzyknął ktoś
I chłód ogarnął wszystkie serca
A w oczach pojawił się strach
Ludzie podali sobie noże zamiast rąk
I upiekl1i ptaki;   Nie, nie


bas w podkładzie - zwrotka

-||---------------------------------||
-||---------------------------------||
-||---------------------------------||
-||---------------------------------||
-||-------------------------7--7-4--||
-||--0------7--7-5---0--------------||


bas - refren

-||---------------------------------||
-||---------------------------------||
-||---------------------------------||
-||---------------------------------||
-||------------------7------4--4----||
-||--0------3--3/7---------------5--||


gitara - przygrywanie

       ~      ~~
-||--7-7-7-10-10-10-7---------------||
-||--7-7-7-7--7--7--7---------------||
-||--7-7-7-7--7--7--7---------------||
-||---------------------------------||
-||---------------------------------||
-||---------------------------------||

       ~      ~~
-||--9-9-9-12-12-12-9-7-------------||
-||--9-9-9-9--9--9--9-7-------------||
-||--9-9-9-9--9--9--9-7-------------||
-||---------------------------------||
-||---------------------------------||
-||---------------------------------||

Cm,Gm,C,Fm9,Dm
Oceń to opracowanie

16 044 wyświetlenia
Autor opracowania
Redakcja

Współpraca

W nowym śpiewniku możesz poprawiać istniejące opracowania i zdobywać punkty Karmy. Zapoznaj się z zasadami kontrybucji.
anonim
Znaleziono 2 komentarze.