0
0

Mała aleja róż (intro) Dżem

Tekst piosenki i tabulatura

  • Tabulatura Średni
    13 ulubionych
INTRO


E-8-----8-------------------8------8-----------------------10-----10--------------------------10-----10-------------------------
H-10--------10-------------8-----------8------------------10------------10------------------12------------12-------------------
G-9-----------------9-------9---------------9--------------11---------------------11---------12--------------------12-----------
D-----------------------------------------------------------------------------------------------------------------------------------------
A-----------------------------------------------------------------------------------------------------------------------------------------
E-----------------------------------------------------------------------------------------------------------------------------------------


E--10-----10------------------------------------------------------------------------------------------------------------------------------
H--10------------10-----------------------------------------------------------------------------------------------------------------------
G--11-------------------11----------------------------------------------------------------------------------------------------------------
D--------------------------------------------------------------------------------------------------------------------------------------------
A--------------------------------------------------------------------------------------------------------------------------------------------
E--------------------------------------------------------------------------------------------------------------------------------------------


Oceń to opracowanie
Ocena czytelników: Niczego sobie+ 12 głosów
anonim
  • anonim
    twojastara
    fajne!!
    · Zgłoś · 8 lat temu