0
0

Prokurator i Ja Dżem

Tekst piosenki i chwyty na gitarę

  • Chwyty na gitarę nianka
    12 ulubionych
Jeszcze jeden, który wie, czego ja od życia chcę
Twardy facet, pięści ma, patrzy spoza grubych akt
Chce mnie skazać za to, że jestem już od lat na dnie
Chce dać wyrok, rok czy dwa, żeby odciąć mnie od zła

Nie dostaniesz mnie, tak łatwo
Choć mnie tropisz w noc i w dzień
Już w ciemności widzę światło
Tam jest moja szansa - śmierć
Nie dostaniesz mnie, tak łatwo
Chociaż mówisz mi na ty
Chcesz być moim ojcem, matką
Odwal się, nie ufam ci, nie ufam ci

Prokurator to jest ktoś, kto ma takich jak ja dość
Nawet nie mam mu za złe, że mym ciałem brzydzi się
Czasem wrzeszczy, czasem znów, w oczy patrzy mi bez słów
A czasem bierze mnie na strach, w końcu to jest jego fach

Nie dostaniesz mnie, tak łatwo
Choć mnie tropisz w noc i w dzień
Już w ciemności widzę światło
Tam jest moja szansa - śmierć
Nie dostaniesz mnie, tak łatwo
Chociaż mówisz mi na ty
Chcesz być moim ojcem, matką
Odwal się, nie ufam ci, nie ufam ci

Boże, zrób coś jeśli to, da mi ulgę - zabij go
Boże, ty go dobrze znasz, przecież on ma moją twarz
Prokurator - ten co wie, co jest dobre, co jest złe
Obserwuje kiedy śpię, nawet w śnie oskarża mnie
Nie dostaniesz mnie


intro: --------------------------------------------|
--------------------------------------------|
--------------------------------------------| x8
-------------------------------2---2--2-----|
--2--2--4--5--4--2-----------------2--2-----|
--------------------------------------------|


zwrotka:
E
-------------------------------------------|
-------------------------------------------|
-------------------------------------------| x8 (jeszcze jeden.............grubych akt)
------------------------------2---2--2-----|
--2--2--4--5--4--2----------------2--2-----|
-------------------------------------------|

A
-----------------------------------------|
-----------------------------------------|
------------------------------2---2--2---| x4 (chce mnie skazac.........na dnie)
--2--2--4--5--4--2----------------2--2---|
-----------------------------------------|
-----------------------------------------|

E
-----------------------------------------|
-----------------------------------------|
-----------------------------------------| x4 (chce dac wyrok.........od zla)
------------------------------2---2---2--|
--2--2--4--5--4--2----------------2---2-|
-----------------------------------------|


ref:
Nie dostaniesz.....noc i w dzień B
Już w ciemnosci...........śmierć Cis
Nie dostaniesz mnie...........ty C
Chcesz być moim ojcem... ufam ci D (E)

2 zwrotka: (tak samo jak pierwsza)

ref: (po refrenie mozna przegrac intro)

3 zwrotka:(zaczynamy grac w momencie"nawet we snie.." i gramy tak jak zwrotke)

na koniec mozemy sobie zagrac intro


Oceń to opracowanie
Kontrybucje:
nianka
nianka
anonim