Wakacyjny Konkurs Śpiewnikowy
Wakacyjny Konkurs Śpiewnikowy
Popraw Opracowanie
Transponuj
0

Whisky Dżem

Whisky: (solo) takt pierwszy (powtarzamy 4 razy akordy G-dur Cad9 (to ten akord co się palce z G-dur w dół daje)
e1------------------ -----------------------------------------3 --------------------------------------------
h2---------3------------3--------------3----------------3-----------------------------------------------------
g3-------------0------------0-------------0----------0--------------------------------------------------------
d4---------------------------------------------------------------------------------------------------------
a5-----------------2---------------------------2-------------------------------------------------------------
e6---3----------------------------3--------------------------------------------------------------------------

drugi takt, akordy: D-dur, C- dur, G-dur i skrócone akordy e-moll i a-moll
e1----------------------------------------------------2-----------------------------------------2-------------
h2-------3-------------3----------3--------------3----------3--------3--------3-----------3-----------------
g3-----------2------------2-----------2------2-----------------2--------2-------2-----2---------------------
d4--0------------0------------0-----------0------------0----------0-------0--------0------------------------
a5-------------------------------------------------------------------------------------------------------------

e6-------------------------------------------------------------------------------------------------------------
e1----------------------------------------------------------------------------------------------------------
h2--------1---------0---------------1----------1---------1--------1-------1---------3-----------------------
g3-----------0---------0--------------0-----------0----------0-------0--------0-------2--------------------
d4----------------------------------------------------------------------------------0--------------------------
a5---3---------2----------------0----------3---------3----------3------3-------------------------------------
e6--------------------------------------------------------------------------------------------------------------

e1-------------------------------------------------3---------------------------------------------------------
h2----------3---------3---------3-------------3---------------------------------------------------------------
g3-------------0--------0---------0--------0-----------------------------------------------------------------
d4-------------------------------------------------------------------------------------------------------------
a5----------------3--------------------3-----------------------------------------------------------------------
e6---3----------------------3----------------------------------------------------------------------------------

MIŁEGO GRANIA ŻYCZĘ ;D

Oceń to opracowanie
Ocena czytelników: Dobry 12 głosów

Kontrybucje
ninja455
  • Teledysk

Wakacyjny Konkurs Śpiewnikowy

Pula nagród w konkursie ponad 10.000 zł!
Przysyłaj opracowania piosenek i zdobądź bony na zakupy w sklepie muzycznym.
Zapoznaj się z regulaminem konkursu.
anonim